ISO-10303-21;
HEADER;
FILE_DESCRIPTION((''),'2;1');
FILE_NAME('2015L-PF','2008-08-14T',('oluf'),(''),
'PRO/ENGINEER BY PARAMETRIC TECHNOLOGY CORPORATION, 2002310',
'PRO/ENGINEER BY PARAMETRIC TECHNOLOGY CORPORATION, 2002310','');
FILE_SCHEMA(('CONFIG_CONTROL_DESIGN'));
ENDSEC;
DATA;
#1=DIRECTION('',(0.E0,-1.E0,0.E0));
#2=VECTOR('',#1,1.8E0);
#3=CARTESIAN_POINT('',(6.2E1,4.74E1,-3.174999999926E1));
#4=LINE('',#3,#2);
#5=DIRECTION('',(0.E0,1.E0,0.E0));
#6=VECTOR('',#5,1.8E0);
#7=CARTESIAN_POINT('',(6.100000000533E1,4.56E1,-3.275E1));
#8=LINE('',#7,#6);
#9=CARTESIAN_POINT('',(-6.1E1,4.56E1,3.075E1));
#10=DIRECTION('',(0.E0,1.E0,0.E0));
#11=DIRECTION('',(-1.E0,0.E0,-2.000003718194E-9));
#12=AXIS2_PLACEMENT_3D('',#9,#10,#11);
#14=CARTESIAN_POINT('',(6.1E1,4.56E1,3.075E1));
#15=DIRECTION('',(0.E0,1.E0,0.E0));
#16=DIRECTION('',(1.599999421842E-8,0.E0,1.E0));
#17=AXIS2_PLACEMENT_3D('',#14,#15,#16);
#19=DIRECTION('',(0.E0,0.E0,-1.E0));
#20=VECTOR('',#19,6.249999999853E1);
#21=CARTESIAN_POINT('',(6.2E1,4.56E1,3.074999999926E1));
#22=LINE('',#21,#20);
#23=CARTESIAN_POINT('',(6.1E1,4.56E1,-3.175E1));
#24=DIRECTION('',(0.E0,1.E0,0.E0));
#25=DIRECTION('',(1.E0,0.E0,2.000000165481E-9));
#26=AXIS2_PLACEMENT_3D('',#23,#24,#25);
#28=CARTESIAN_POINT('',(-6.1E1,4.56E1,-3.175E1));
#29=DIRECTION('',(0.E0,1.E0,0.E0));
#30=DIRECTION('',(-1.599999421842E-8,0.E0,-1.E0));
#31=AXIS2_PLACEMENT_3D('',#28,#29,#30);
#33=DIRECTION('',(0.E0,0.E0,1.E0));
#34=VECTOR('',#33,6.249999999892E1);
#35=CARTESIAN_POINT('',(-6.2E1,4.56E1,-3.174999999946E1));
#36=LINE('',#35,#34);
#37=DIRECTION('',(0.E0,1.E0,0.E0));
#38=VECTOR('',#37,1.8E0);
#39=CARTESIAN_POINT('',(-6.100000000547E1,4.56E1,3.175E1));
#40=LINE('',#39,#38);
#41=DIRECTION('',(0.E0,-1.E0,0.E0));
#42=VECTOR('',#41,1.8E0);
#43=CARTESIAN_POINT('',(-6.2E1,4.74E1,3.074999999946E1));
#44=LINE('',#43,#42);
#45=CARTESIAN_POINT('',(6.1E1,4.74E1,-3.175E1));
#46=DIRECTION('',(0.E0,-1.E0,0.E0));
#47=DIRECTION('',(1.599999421842E-8,0.E0,-1.E0));
#48=AXIS2_PLACEMENT_3D('',#45,#46,#47);
#50=DIRECTION('',(0.E0,0.E0,1.E0));
#51=VECTOR('',#50,6.249999999853E1);
#52=CARTESIAN_POINT('',(6.2E1,4.74E1,-3.174999999926E1));
#53=LINE('',#52,#51);
#54=CARTESIAN_POINT('',(6.1E1,4.74E1,3.075E1));
#55=DIRECTION('',(0.E0,-1.E0,0.E0));
#56=DIRECTION('',(1.E0,0.E0,-2.000003718194E-9));
#57=AXIS2_PLACEMENT_3D('',#54,#55,#56);
#59=CARTESIAN_POINT('',(-6.1E1,4.74E1,3.075E1));
#60=DIRECTION('',(0.E0,-1.E0,0.E0));
#61=DIRECTION('',(-1.599999421842E-8,0.E0,1.E0));
#62=AXIS2_PLACEMENT_3D('',#59,#60,#61);
#64=CARTESIAN_POINT('',(-6.1E1,4.74E1,-3.175E1));
#65=DIRECTION('',(0.E0,-1.E0,0.E0));
#66=DIRECTION('',(-1.E0,0.E0,2.000000165481E-9));
#67=AXIS2_PLACEMENT_3D('',#64,#65,#66);
#69=DIRECTION('',(0.E0,-1.E0,0.E0));
#70=VECTOR('',#69,1.8E0);
#71=CARTESIAN_POINT('',(6.100000000533E1,4.74E1,3.175E1));
#72=LINE('',#71,#70);
#73=DIRECTION('',(0.E0,1.E0,0.E0));
#74=VECTOR('',#73,1.8E0);
#75=CARTESIAN_POINT('',(6.2E1,4.56E1,3.074999999926E1));
#76=LINE('',#75,#74);
#77=DIRECTION('',(-1.E0,0.E0,0.E0));
#78=VECTOR('',#77,1.220000000108E2);
#79=CARTESIAN_POINT('',(6.100000000533E1,4.56E1,3.175E1));
#80=LINE('',#79,#78);
#81=DIRECTION('',(1.E0,0.E0,0.E0));
#82=VECTOR('',#81,1.220000000108E2);
#83=CARTESIAN_POINT('',(-6.100000000547E1,4.74E1,3.175E1));
#84=LINE('',#83,#82);
#85=DIRECTION('',(0.E0,0.E0,1.E0));
#86=VECTOR('',#85,6.249999999892E1);
#87=CARTESIAN_POINT('',(-6.2E1,4.74E1,-3.174999999946E1));
#88=LINE('',#87,#86);
#89=DIRECTION('',(0.E0,1.E0,0.E0));
#90=VECTOR('',#89,1.8E0);
#91=CARTESIAN_POINT('',(-6.2E1,4.56E1,-3.174999999946E1));
#92=LINE('',#91,#90);
#93=DIRECTION('',(0.E0,-1.E0,0.E0));
#94=VECTOR('',#93,1.8E0);
#95=CARTESIAN_POINT('',(-6.100000000547E1,4.74E1,-3.275E1));
#96=LINE('',#95,#94);
#97=DIRECTION('',(-1.E0,0.E0,0.E0));
#98=VECTOR('',#97,1.220000000108E2);
#99=CARTESIAN_POINT('',(6.100000000533E1,4.56E1,-3.275E1));
#100=LINE('',#99,#98);
#101=DIRECTION('',(1.E0,0.E0,0.E0));
#102=VECTOR('',#101,1.220000000108E2);
#103=CARTESIAN_POINT('',(-6.100000000547E1,4.74E1,-3.275E1));
#104=LINE('',#103,#102);
#105=CARTESIAN_POINT('',(6.2E1,4.74E1,-3.174999999926E1));
#106=CARTESIAN_POINT('',(6.2E1,4.74E1,3.074999999926E1));
#107=VERTEX_POINT('',#105);
#108=VERTEX_POINT('',#106);
#109=CARTESIAN_POINT('',(6.2E1,4.56E1,3.074999999926E1));
#110=CARTESIAN_POINT('',(6.2E1,4.56E1,-3.174999999926E1));
#111=VERTEX_POINT('',#109);
#112=VERTEX_POINT('',#110);
#113=CARTESIAN_POINT('',(-6.2E1,4.74E1,-3.174999999946E1));
#114=CARTESIAN_POINT('',(-6.2E1,4.74E1,3.074999999946E1));
#115=VERTEX_POINT('',#113);
#116=VERTEX_POINT('',#114);
#117=CARTESIAN_POINT('',(-6.100000000547E1,4.74E1,3.175E1));
#118=CARTESIAN_POINT('',(6.100000000533E1,4.74E1,3.175E1));
#119=VERTEX_POINT('',#117);
#120=VERTEX_POINT('',#118);
#121=CARTESIAN_POINT('',(-6.2E1,4.56E1,-3.174999999946E1));
#122=CARTESIAN_POINT('',(-6.2E1,4.56E1,3.074999999946E1));
#123=VERTEX_POINT('',#121);
#124=VERTEX_POINT('',#122);
#125=CARTESIAN_POINT('',(6.100000000533E1,4.56E1,3.175E1));
#126=CARTESIAN_POINT('',(-6.100000000547E1,4.56E1,3.175E1));
#127=VERTEX_POINT('',#125);
#128=VERTEX_POINT('',#126);
#129=CARTESIAN_POINT('',(6.100000000533E1,4.56E1,-3.275E1));
#130=CARTESIAN_POINT('',(6.100000000533E1,4.74E1,-3.275E1));
#131=VERTEX_POINT('',#129);
#132=VERTEX_POINT('',#130);
#133=CARTESIAN_POINT('',(-6.100000000547E1,4.74E1,-3.275E1));
#134=CARTESIAN_POINT('',(-6.100000000547E1,4.56E1,-3.275E1));
#135=VERTEX_POINT('',#133);
#136=VERTEX_POINT('',#134);
#137=CARTESIAN_POINT('',(6.2E1,4.65E1,-5.E-1));
#138=DIRECTION('',(1.E0,0.E0,0.E0));
#139=DIRECTION('',(0.E0,0.E0,1.E0));
#140=AXIS2_PLACEMENT_3D('',#137,#138,#139);
#141=PLANE('',#140);
#143=ORIENTED_EDGE('',*,*,#142,.T.);
#145=ORIENTED_EDGE('',*,*,#144,.F.);
#147=ORIENTED_EDGE('',*,*,#146,.T.);
#149=ORIENTED_EDGE('',*,*,#148,.F.);
#150=EDGE_LOOP('',(#143,#145,#147,#149));
#151=FACE_OUTER_BOUND('',#150,.F.);
#152=ADVANCED_FACE('',(#151),#141,.T.);
#153=CARTESIAN_POINT('',(6.1E1,4.74E1,-3.175E1));
#154=DIRECTION('',(0.E0,-1.E0,0.E0));
#155=DIRECTION('',(0.E0,0.E0,-1.E0));
#156=AXIS2_PLACEMENT_3D('',#153,#154,#155);
#157=CYLINDRICAL_SURFACE('',#156,1.E0);
#159=ORIENTED_EDGE('',*,*,#158,.F.);
#160=ORIENTED_EDGE('',*,*,#142,.F.);
#162=ORIENTED_EDGE('',*,*,#161,.F.);
#164=ORIENTED_EDGE('',*,*,#163,.F.);
#165=EDGE_LOOP('',(#159,#160,#162,#164));
#166=FACE_OUTER_BOUND('',#165,.F.);
#167=ADVANCED_FACE('',(#166),#157,.T.);
#168=CARTESIAN_POINT('',(0.E0,4.56E1,-5.E-1));
#169=DIRECTION('',(0.E0,1.E0,0.E0));
#170=DIRECTION('',(0.E0,0.E0,1.E0));
#171=AXIS2_PLACEMENT_3D('',#168,#169,#170);
#172=PLANE('',#171);
#174=ORIENTED_EDGE('',*,*,#173,.T.);
#176=ORIENTED_EDGE('',*,*,#175,.F.);
#178=ORIENTED_EDGE('',*,*,#177,.T.);
#179=ORIENTED_EDGE('',*,*,#144,.T.);
#180=ORIENTED_EDGE('',*,*,#158,.T.);
#182=ORIENTED_EDGE('',*,*,#181,.T.);
#184=ORIENTED_EDGE('',*,*,#183,.T.);
#186=ORIENTED_EDGE('',*,*,#185,.T.);
#187=EDGE_LOOP('',(#174,#176,#178,#179,#180,#182,#184,#186));
#188=FACE_OUTER_BOUND('',#187,.F.);
#189=ADVANCED_FACE('',(#188),#172,.F.);
#190=CARTESIAN_POINT('',(-6.1E1,4.74E1,3.075E1));
#191=DIRECTION('',(0.E0,-1.E0,0.E0));
#192=DIRECTION('',(0.E0,0.E0,-1.E0));
#193=AXIS2_PLACEMENT_3D('',#190,#191,#192);
#194=CYLINDRICAL_SURFACE('',#193,1.E0);
#196=ORIENTED_EDGE('',*,*,#195,.F.);
#198=ORIENTED_EDGE('',*,*,#197,.F.);
#199=ORIENTED_EDGE('',*,*,#173,.F.);
#201=ORIENTED_EDGE('',*,*,#200,.F.);
#202=EDGE_LOOP('',(#196,#198,#199,#201));
#203=FACE_OUTER_BOUND('',#202,.F.);
#204=ADVANCED_FACE('',(#203),#194,.T.);
#205=CARTESIAN_POINT('',(0.E0,4.74E1,-5.E-1));
#206=DIRECTION('',(0.E0,1.E0,0.E0));
#207=DIRECTION('',(1.E0,0.E0,0.E0));
#208=AXIS2_PLACEMENT_3D('',#205,#206,#207);
#209=PLANE('',#208);
#210=ORIENTED_EDGE('',*,*,#161,.T.);
#211=ORIENTED_EDGE('',*,*,#148,.T.);
#213=ORIENTED_EDGE('',*,*,#212,.T.);
#215=ORIENTED_EDGE('',*,*,#214,.F.);
#216=ORIENTED_EDGE('',*,*,#195,.T.);
#218=ORIENTED_EDGE('',*,*,#217,.F.);
#220=ORIENTED_EDGE('',*,*,#219,.T.);
#222=ORIENTED_EDGE('',*,*,#221,.T.);
#223=EDGE_LOOP('',(#210,#211,#213,#215,#216,#218,#220,#222));
#224=FACE_OUTER_BOUND('',#223,.F.);
#225=ADVANCED_FACE('',(#224),#209,.T.);
#226=CARTESIAN_POINT('',(6.1E1,4.56E1,3.075E1));
#227=DIRECTION('',(0.E0,1.E0,0.E0));
#228=DIRECTION('',(0.E0,0.E0,1.E0));
#229=AXIS2_PLACEMENT_3D('',#226,#227,#228);
#230=CYLINDRICAL_SURFACE('',#229,1.E0);
#231=ORIENTED_EDGE('',*,*,#177,.F.);
#233=ORIENTED_EDGE('',*,*,#232,.F.);
#234=ORIENTED_EDGE('',*,*,#212,.F.);
#235=ORIENTED_EDGE('',*,*,#146,.F.);
#236=EDGE_LOOP('',(#231,#233,#234,#235));
#237=FACE_OUTER_BOUND('',#236,.F.);
#238=ADVANCED_FACE('',(#237),#230,.T.);
#239=CARTESIAN_POINT('',(0.E0,4.65E1,3.175E1));
#240=DIRECTION('',(0.E0,0.E0,1.E0));
#241=DIRECTION('',(-1.E0,0.E0,0.E0));
#242=AXIS2_PLACEMENT_3D('',#239,#240,#241);
#243=PLANE('',#242);
#244=ORIENTED_EDGE('',*,*,#232,.T.);
#245=ORIENTED_EDGE('',*,*,#175,.T.);
#246=ORIENTED_EDGE('',*,*,#197,.T.);
#247=ORIENTED_EDGE('',*,*,#214,.T.);
#248=EDGE_LOOP('',(#244,#245,#246,#247));
#249=FACE_OUTER_BOUND('',#248,.F.);
#250=ADVANCED_FACE('',(#249),#243,.T.);
#251=CARTESIAN_POINT('',(-6.2E1,4.65E1,-5.E-1));
#252=DIRECTION('',(1.E0,0.E0,0.E0));
#253=DIRECTION('',(0.E0,0.E0,-1.E0));
#254=AXIS2_PLACEMENT_3D('',#251,#252,#253);
#255=PLANE('',#254);
#256=ORIENTED_EDGE('',*,*,#200,.T.);
#257=ORIENTED_EDGE('',*,*,#185,.F.);
#259=ORIENTED_EDGE('',*,*,#258,.T.);
#260=ORIENTED_EDGE('',*,*,#217,.T.);
#261=EDGE_LOOP('',(#256,#257,#259,#260));
#262=FACE_OUTER_BOUND('',#261,.F.);
#263=ADVANCED_FACE('',(#262),#255,.F.);
#264=CARTESIAN_POINT('',(-6.1E1,4.56E1,-3.175E1));
#265=DIRECTION('',(0.E0,1.E0,0.E0));
#266=DIRECTION('',(0.E0,0.E0,1.E0));
#267=AXIS2_PLACEMENT_3D('',#264,#265,#266);
#268=CYLINDRICAL_SURFACE('',#267,1.E0);
#269=ORIENTED_EDGE('',*,*,#219,.F.);
#270=ORIENTED_EDGE('',*,*,#258,.F.);
#271=ORIENTED_EDGE('',*,*,#183,.F.);
#273=ORIENTED_EDGE('',*,*,#272,.F.);
#274=EDGE_LOOP('',(#269,#270,#271,#273));
#275=FACE_OUTER_BOUND('',#274,.F.);
#276=ADVANCED_FACE('',(#275),#268,.T.);
#277=CARTESIAN_POINT('',(0.E0,4.65E1,-3.275E1));
#278=DIRECTION('',(0.E0,0.E0,1.E0));
#279=DIRECTION('',(-1.E0,0.E0,0.E0));
#280=AXIS2_PLACEMENT_3D('',#277,#278,#279);
#281=PLANE('',#280);
#282=ORIENTED_EDGE('',*,*,#181,.F.);
#283=ORIENTED_EDGE('',*,*,#163,.T.);
#284=ORIENTED_EDGE('',*,*,#221,.F.);
#285=ORIENTED_EDGE('',*,*,#272,.T.);
#286=EDGE_LOOP('',(#282,#283,#284,#285));
#287=FACE_OUTER_BOUND('',#286,.F.);
#288=ADVANCED_FACE('',(#287),#281,.F.);
#289=CLOSED_SHELL('',(#152,#167,#189,#204,#225,#238,#250,#263,#276,#288));
#290=MANIFOLD_SOLID_BREP('',#289);
#291=(LENGTH_UNIT()NAMED_UNIT(*)SI_UNIT(.MILLI.,.METRE.));
#292=DIMENSIONAL_EXPONENTS(0.E0,0.E0,0.E0,0.E0,0.E0,0.E0,0.E0);
#293=(NAMED_UNIT(*)PLANE_ANGLE_UNIT()SI_UNIT($,.RADIAN.));
#294=PLANE_ANGLE_MEASURE_WITH_UNIT(PLANE_ANGLE_MEASURE(1.745329251994E-2),#293);
#295=(CONVERSION_BASED_UNIT('DEGREE',#294)NAMED_UNIT(#292)PLANE_ANGLE_UNIT());
#296=(NAMED_UNIT(*)SI_UNIT($,.STERADIAN.)SOLID_ANGLE_UNIT());
#297=UNCERTAINTY_MEASURE_WITH_UNIT(LENGTH_MEASURE(1.397781344562E-2),#291,
'closure',
'Maximum model space distance between geometric entities at asserted connectivities');
#298=(GEOMETRIC_REPRESENTATION_CONTEXT(3)GLOBAL_UNCERTAINTY_ASSIGNED_CONTEXT((
#297))GLOBAL_UNIT_ASSIGNED_CONTEXT((#291,#295,#296))REPRESENTATION_CONTEXT
('ID1','3'));
#300=APPLICATION_CONTEXT(
'CONFIGURATION CONTROLLED 3D DESIGNS OF MECHANICAL PARTS AND ASSEMBLIES');
#301=APPLICATION_PROTOCOL_DEFINITION('international standard',
'config_control_design',1994,#300);
#302=DESIGN_CONTEXT('',#300,'design');
#303=MECHANICAL_CONTEXT('',#300,'mechanical');
#304=PRODUCT('2015L-PF','2015L-PF','NOT SPECIFIED',(#303));
#305=PRODUCT_DEFINITION_FORMATION_WITH_SPECIFIED_SOURCE('','LAST_VERSION',#304,
.MADE.);
#309=PRODUCT_CATEGORY('part','');
#310=PRODUCT_RELATED_PRODUCT_CATEGORY('detail','',(#304));
#311=PRODUCT_CATEGORY_RELATIONSHIP('','',#309,#310);
#312=SECURITY_CLASSIFICATION_LEVEL('unclassified');
#313=SECURITY_CLASSIFICATION('','',#312);
#314=CC_DESIGN_SECURITY_CLASSIFICATION(#313,(#305));
#315=APPROVAL_STATUS('approved');
#316=APPROVAL(#315,'');
#317=CC_DESIGN_APPROVAL(#316,(#313,#305,#306));
#318=CALENDAR_DATE(108,14,8);
#319=COORDINATED_UNIVERSAL_TIME_OFFSET(3,0,.AHEAD.);
#320=LOCAL_TIME(13,51,5.E1,#319);
#321=DATE_AND_TIME(#318,#320);
#322=APPROVAL_DATE_TIME(#321,#316);
#323=DATE_TIME_ROLE('creation_date');
#324=CC_DESIGN_DATE_AND_TIME_ASSIGNMENT(#321,#323,(#306));
#325=DATE_TIME_ROLE('classification_date');
#326=CC_DESIGN_DATE_AND_TIME_ASSIGNMENT(#321,#325,(#313));
#327=PERSON('UNSPECIFIED','UNSPECIFIED',$,$,$,$);
#328=ORGANIZATION('UNSPECIFIED','UNSPECIFIED','UNSPECIFIED');
#329=PERSON_AND_ORGANIZATION(#327,#328);
#330=APPROVAL_ROLE('approver');
#331=APPROVAL_PERSON_ORGANIZATION(#329,#316,#330);
#332=PERSON_AND_ORGANIZATION_ROLE('creator');
#333=CC_DESIGN_PERSON_AND_ORGANIZATION_ASSIGNMENT(#329,#332,(#305,#306));
#334=PERSON_AND_ORGANIZATION_ROLE('design_supplier');
#335=CC_DESIGN_PERSON_AND_ORGANIZATION_ASSIGNMENT(#329,#334,(#305));
#336=PERSON_AND_ORGANIZATION_ROLE('classification_officer');
#337=CC_DESIGN_PERSON_AND_ORGANIZATION_ASSIGNMENT(#329,#336,(#313));
#338=PERSON_AND_ORGANIZATION_ROLE('design_owner');
#339=CC_DESIGN_PERSON_AND_ORGANIZATION_ASSIGNMENT(#329,#338,(#304));
#13=CIRCLE('',#12,1.E0);
#18=CIRCLE('',#17,1.E0);
#27=CIRCLE('',#26,1.E0);
#32=CIRCLE('',#31,1.E0);
#49=CIRCLE('',#48,1.E0);
#58=CIRCLE('',#57,1.E0);
#63=CIRCLE('',#62,1.E0);
#68=CIRCLE('',#67,1.E0);
#142=EDGE_CURVE('',#107,#112,#4,.T.);
#144=EDGE_CURVE('',#111,#112,#22,.T.);
#146=EDGE_CURVE('',#111,#108,#76,.T.);
#148=EDGE_CURVE('',#107,#108,#53,.T.);
#158=EDGE_CURVE('',#112,#131,#27,.T.);
#161=EDGE_CURVE('',#132,#107,#49,.T.);
#163=EDGE_CURVE('',#131,#132,#8,.T.);
#173=EDGE_CURVE('',#124,#128,#13,.T.);
#175=EDGE_CURVE('',#127,#128,#80,.T.);
#177=EDGE_CURVE('',#127,#111,#18,.T.);
#181=EDGE_CURVE('',#131,#136,#100,.T.);
#183=EDGE_CURVE('',#136,#123,#32,.T.);
#185=EDGE_CURVE('',#123,#124,#36,.T.);
#195=EDGE_CURVE('',#119,#116,#63,.T.);
#197=EDGE_CURVE('',#128,#119,#40,.T.);
#200=EDGE_CURVE('',#116,#124,#44,.T.);
#212=EDGE_CURVE('',#108,#120,#58,.T.);
#214=EDGE_CURVE('',#119,#120,#84,.T.);
#217=EDGE_CURVE('',#115,#116,#88,.T.);
#219=EDGE_CURVE('',#115,#135,#68,.T.);
#221=EDGE_CURVE('',#135,#132,#104,.T.);
#232=EDGE_CURVE('',#120,#127,#72,.T.);
#258=EDGE_CURVE('',#123,#115,#92,.T.);
#272=EDGE_CURVE('',#135,#136,#96,.T.);
#299=ADVANCED_BREP_SHAPE_REPRESENTATION('',(#290),#298);
#306=PRODUCT_DEFINITION('design','',#305,#302);
#307=PRODUCT_DEFINITION_SHAPE('','SHAPE FOR 2015L-PF.',#306);
#308=SHAPE_DEFINITION_REPRESENTATION(#307,#299);
ENDSEC;
END-ISO-10303-21;
