ISO-10303-21;
HEADER;
FILE_DESCRIPTION((''),'2;1');
FILE_NAME('2015L-PR','2008-08-14T',('oluf'),(''),
'PRO/ENGINEER BY PARAMETRIC TECHNOLOGY CORPORATION, 2002310',
'PRO/ENGINEER BY PARAMETRIC TECHNOLOGY CORPORATION, 2002310','');
FILE_SCHEMA(('CONFIG_CONTROL_DESIGN'));
ENDSEC;
DATA;
#1=CARTESIAN_POINT('',(6.1E1,-4.74E1,3.075E1));
#2=DIRECTION('',(0.E0,1.E0,0.E0));
#3=DIRECTION('',(1.599999421842E-8,0.E0,1.E0));
#4=AXIS2_PLACEMENT_3D('',#1,#2,#3);
#6=CARTESIAN_POINT('',(6.1E1,-4.74E1,-3.175E1));
#7=DIRECTION('',(0.E0,1.E0,0.E0));
#8=DIRECTION('',(1.E0,0.E0,2.000000165481E-9));
#9=AXIS2_PLACEMENT_3D('',#6,#7,#8);
#11=CARTESIAN_POINT('',(-6.1E1,-4.74E1,-3.175E1));
#12=DIRECTION('',(0.E0,1.E0,0.E0));
#13=DIRECTION('',(-1.599999421842E-8,0.E0,-1.E0));
#14=AXIS2_PLACEMENT_3D('',#11,#12,#13);
#16=CARTESIAN_POINT('',(-6.1E1,-4.74E1,3.075E1));
#17=DIRECTION('',(0.E0,1.E0,0.E0));
#18=DIRECTION('',(-1.E0,0.E0,-2.000003718194E-9));
#19=AXIS2_PLACEMENT_3D('',#16,#17,#18);
#21=DIRECTION('',(0.E0,-1.E0,0.E0));
#22=VECTOR('',#21,1.8E0);
#23=CARTESIAN_POINT('',(6.100000000520E1,-4.56E1,3.175E1));
#24=LINE('',#23,#22);
#25=DIRECTION('',(0.E0,1.E0,0.E0));
#26=VECTOR('',#25,1.8E0);
#27=CARTESIAN_POINT('',(6.2E1,-4.74E1,3.074999999940E1));
#28=LINE('',#27,#26);
#29=DIRECTION('',(-1.E0,0.E0,0.E0));
#30=VECTOR('',#29,1.220000000105E2);
#31=CARTESIAN_POINT('',(6.100000000520E1,-4.56E1,3.175E1));
#32=LINE('',#31,#30);
#33=DIRECTION('',(1.E0,0.E0,0.E0));
#34=VECTOR('',#33,1.220000000105E2);
#35=CARTESIAN_POINT('',(-6.100000000533E1,-4.74E1,3.175E1));
#36=LINE('',#35,#34);
#37=CARTESIAN_POINT('',(-6.1E1,-4.56E1,-3.175E1));
#38=DIRECTION('',(0.E0,-1.E0,0.E0));
#39=DIRECTION('',(-1.E0,0.E0,2.000003718194E-9));
#40=AXIS2_PLACEMENT_3D('',#37,#38,#39);
#42=CARTESIAN_POINT('',(6.1E1,-4.56E1,-3.175E1));
#43=DIRECTION('',(0.E0,-1.E0,0.E0));
#44=DIRECTION('',(1.599999421842E-8,0.E0,-1.E0));
#45=AXIS2_PLACEMENT_3D('',#42,#43,#44);
#47=DIRECTION('',(0.E0,0.E0,1.E0));
#48=VECTOR('',#47,6.249999999880E1);
#49=CARTESIAN_POINT('',(6.2E1,-4.56E1,-3.174999999940E1));
#50=LINE('',#49,#48);
#51=CARTESIAN_POINT('',(6.1E1,-4.56E1,3.075E1));
#52=DIRECTION('',(0.E0,-1.E0,0.E0));
#53=DIRECTION('',(1.E0,0.E0,-2.000000165481E-9));
#54=AXIS2_PLACEMENT_3D('',#51,#52,#53);
#56=CARTESIAN_POINT('',(-6.1E1,-4.56E1,3.075E1));
#57=DIRECTION('',(0.E0,-1.E0,0.E0));
#58=DIRECTION('',(-1.599999421842E-8,0.E0,1.E0));
#59=AXIS2_PLACEMENT_3D('',#56,#57,#58);
#61=DIRECTION('',(0.E0,1.E0,0.E0));
#62=VECTOR('',#61,1.8E0);
#63=CARTESIAN_POINT('',(-6.2E1,-4.74E1,-3.174999999921E1));
#64=LINE('',#63,#62);
#65=DIRECTION('',(0.E0,-1.E0,0.E0));
#66=VECTOR('',#65,1.8E0);
#67=CARTESIAN_POINT('',(-6.100000000533E1,-4.56E1,-3.275E1));
#68=LINE('',#67,#66);
#69=DIRECTION('',(0.E0,0.E0,1.E0));
#70=VECTOR('',#69,6.249999999841E1);
#71=CARTESIAN_POINT('',(-6.2E1,-4.56E1,-3.174999999921E1));
#72=LINE('',#71,#70);
#73=DIRECTION('',(0.E0,0.E0,-1.E0));
#74=VECTOR('',#73,6.249999999841E1);
#75=CARTESIAN_POINT('',(-6.2E1,-4.74E1,3.074999999921E1));
#76=LINE('',#75,#74);
#77=DIRECTION('',(0.E0,1.E0,0.E0));
#78=VECTOR('',#77,1.8E0);
#79=CARTESIAN_POINT('',(-6.100000000533E1,-4.74E1,3.175E1));
#80=LINE('',#79,#78);
#81=DIRECTION('',(0.E0,-1.E0,0.E0));
#82=VECTOR('',#81,1.8E0);
#83=CARTESIAN_POINT('',(-6.2E1,-4.56E1,3.074999999921E1));
#84=LINE('',#83,#82);
#85=DIRECTION('',(-1.E0,0.E0,0.E0));
#86=VECTOR('',#85,1.220000000105E2);
#87=CARTESIAN_POINT('',(6.100000000520E1,-4.56E1,-3.275E1));
#88=LINE('',#87,#86);
#89=DIRECTION('',(1.E0,0.E0,0.E0));
#90=VECTOR('',#89,1.220000000105E2);
#91=CARTESIAN_POINT('',(-6.100000000533E1,-4.74E1,-3.275E1));
#92=LINE('',#91,#90);
#93=DIRECTION('',(0.E0,-1.E0,0.E0));
#94=VECTOR('',#93,1.8E0);
#95=CARTESIAN_POINT('',(6.2E1,-4.56E1,-3.174999999940E1));
#96=LINE('',#95,#94);
#97=DIRECTION('',(0.E0,1.E0,0.E0));
#98=VECTOR('',#97,1.8E0);
#99=CARTESIAN_POINT('',(6.100000000520E1,-4.74E1,-3.275E1));
#100=LINE('',#99,#98);
#101=DIRECTION('',(0.E0,0.E0,1.E0));
#102=VECTOR('',#101,6.249999999880E1);
#103=CARTESIAN_POINT('',(6.2E1,-4.74E1,-3.174999999940E1));
#104=LINE('',#103,#102);
#105=CARTESIAN_POINT('',(-6.2E1,-4.74E1,3.074999999921E1));
#106=CARTESIAN_POINT('',(-6.2E1,-4.74E1,-3.174999999921E1));
#107=VERTEX_POINT('',#105);
#108=VERTEX_POINT('',#106);
#109=CARTESIAN_POINT('',(-6.100000000533E1,-4.74E1,-3.275E1));
#110=CARTESIAN_POINT('',(6.100000000520E1,-4.74E1,-3.275E1));
#111=VERTEX_POINT('',#109);
#112=VERTEX_POINT('',#110);
#113=CARTESIAN_POINT('',(6.2E1,-4.74E1,-3.174999999940E1));
#114=CARTESIAN_POINT('',(6.2E1,-4.74E1,3.074999999940E1));
#115=VERTEX_POINT('',#113);
#116=VERTEX_POINT('',#114);
#117=CARTESIAN_POINT('',(6.2E1,-4.56E1,-3.174999999940E1));
#118=CARTESIAN_POINT('',(6.2E1,-4.56E1,3.074999999940E1));
#119=VERTEX_POINT('',#117);
#120=VERTEX_POINT('',#118);
#121=CARTESIAN_POINT('',(-6.2E1,-4.56E1,-3.174999999921E1));
#122=CARTESIAN_POINT('',(-6.2E1,-4.56E1,3.074999999921E1));
#123=VERTEX_POINT('',#121);
#124=VERTEX_POINT('',#122);
#125=CARTESIAN_POINT('',(6.100000000520E1,-4.56E1,-3.275E1));
#126=CARTESIAN_POINT('',(-6.100000000533E1,-4.56E1,-3.275E1));
#127=VERTEX_POINT('',#125);
#128=VERTEX_POINT('',#126);
#129=CARTESIAN_POINT('',(6.100000000520E1,-4.56E1,3.175E1));
#130=CARTESIAN_POINT('',(6.100000000520E1,-4.74E1,3.175E1));
#131=VERTEX_POINT('',#129);
#132=VERTEX_POINT('',#130);
#133=CARTESIAN_POINT('',(-6.100000000533E1,-4.74E1,3.175E1));
#134=CARTESIAN_POINT('',(-6.100000000533E1,-4.56E1,3.175E1));
#135=VERTEX_POINT('',#133);
#136=VERTEX_POINT('',#134);
#137=CARTESIAN_POINT('',(0.E0,-4.74E1,-5.E-1));
#138=DIRECTION('',(0.E0,1.E0,0.E0));
#139=DIRECTION('',(-1.E0,0.E0,0.E0));
#140=AXIS2_PLACEMENT_3D('',#137,#138,#139);
#141=PLANE('',#140);
#143=ORIENTED_EDGE('',*,*,#142,.T.);
#145=ORIENTED_EDGE('',*,*,#144,.F.);
#147=ORIENTED_EDGE('',*,*,#146,.T.);
#149=ORIENTED_EDGE('',*,*,#148,.F.);
#151=ORIENTED_EDGE('',*,*,#150,.T.);
#153=ORIENTED_EDGE('',*,*,#152,.F.);
#155=ORIENTED_EDGE('',*,*,#154,.T.);
#157=ORIENTED_EDGE('',*,*,#156,.T.);
#158=EDGE_LOOP('',(#143,#145,#147,#149,#151,#153,#155,#157));
#159=FACE_OUTER_BOUND('',#158,.F.);
#160=ADVANCED_FACE('',(#159),#141,.F.);
#161=CARTESIAN_POINT('',(6.1E1,-4.56E1,3.075E1));
#162=DIRECTION('',(0.E0,-1.E0,0.E0));
#163=DIRECTION('',(0.E0,0.E0,-1.E0));
#164=AXIS2_PLACEMENT_3D('',#161,#162,#163);
#165=CYLINDRICAL_SURFACE('',#164,1.E0);
#166=ORIENTED_EDGE('',*,*,#142,.F.);
#168=ORIENTED_EDGE('',*,*,#167,.F.);
#170=ORIENTED_EDGE('',*,*,#169,.F.);
#172=ORIENTED_EDGE('',*,*,#171,.F.);
#173=EDGE_LOOP('',(#166,#168,#170,#172));
#174=FACE_OUTER_BOUND('',#173,.F.);
#175=ADVANCED_FACE('',(#174),#165,.T.);
#176=CARTESIAN_POINT('',(0.E0,-4.65E1,3.175E1));
#177=DIRECTION('',(0.E0,0.E0,1.E0));
#178=DIRECTION('',(1.E0,0.E0,0.E0));
#179=AXIS2_PLACEMENT_3D('',#176,#177,#178);
#180=PLANE('',#179);
#182=ORIENTED_EDGE('',*,*,#181,.F.);
#183=ORIENTED_EDGE('',*,*,#167,.T.);
#184=ORIENTED_EDGE('',*,*,#156,.F.);
#186=ORIENTED_EDGE('',*,*,#185,.T.);
#187=EDGE_LOOP('',(#182,#183,#184,#186));
#188=FACE_OUTER_BOUND('',#187,.F.);
#189=ADVANCED_FACE('',(#188),#180,.T.);
#190=CARTESIAN_POINT('',(0.E0,-4.56E1,-5.E-1));
#191=DIRECTION('',(0.E0,1.E0,0.E0));
#192=DIRECTION('',(0.E0,0.E0,-1.E0));
#193=AXIS2_PLACEMENT_3D('',#190,#191,#192);
#194=PLANE('',#193);
#196=ORIENTED_EDGE('',*,*,#195,.T.);
#198=ORIENTED_EDGE('',*,*,#197,.F.);
#200=ORIENTED_EDGE('',*,*,#199,.T.);
#202=ORIENTED_EDGE('',*,*,#201,.T.);
#203=ORIENTED_EDGE('',*,*,#169,.T.);
#204=ORIENTED_EDGE('',*,*,#181,.T.);
#206=ORIENTED_EDGE('',*,*,#205,.T.);
#208=ORIENTED_EDGE('',*,*,#207,.F.);
#209=EDGE_LOOP('',(#196,#198,#200,#202,#203,#204,#206,#208));
#210=FACE_OUTER_BOUND('',#209,.F.);
#211=ADVANCED_FACE('',(#210),#194,.T.);
#212=CARTESIAN_POINT('',(-6.1E1,-4.56E1,-3.175E1));
#213=DIRECTION('',(0.E0,-1.E0,0.E0));
#214=DIRECTION('',(0.E0,0.E0,-1.E0));
#215=AXIS2_PLACEMENT_3D('',#212,#213,#214);
#216=CYLINDRICAL_SURFACE('',#215,1.E0);
#217=ORIENTED_EDGE('',*,*,#195,.F.);
#219=ORIENTED_EDGE('',*,*,#218,.F.);
#220=ORIENTED_EDGE('',*,*,#150,.F.);
#222=ORIENTED_EDGE('',*,*,#221,.F.);
#223=EDGE_LOOP('',(#217,#219,#220,#222));
#224=FACE_OUTER_BOUND('',#223,.F.);
#225=ADVANCED_FACE('',(#224),#216,.T.);
#226=CARTESIAN_POINT('',(-6.2E1,-4.65E1,-5.E-1));
#227=DIRECTION('',(1.E0,0.E0,0.E0));
#228=DIRECTION('',(0.E0,0.E0,-1.E0));
#229=AXIS2_PLACEMENT_3D('',#226,#227,#228);
#230=PLANE('',#229);
#231=ORIENTED_EDGE('',*,*,#218,.T.);
#232=ORIENTED_EDGE('',*,*,#207,.T.);
#234=ORIENTED_EDGE('',*,*,#233,.T.);
#235=ORIENTED_EDGE('',*,*,#152,.T.);
#236=EDGE_LOOP('',(#231,#232,#234,#235));
#237=FACE_OUTER_BOUND('',#236,.F.);
#238=ADVANCED_FACE('',(#237),#230,.F.);
#239=CARTESIAN_POINT('',(-6.1E1,-4.74E1,3.075E1));
#240=DIRECTION('',(0.E0,1.E0,0.E0));
#241=DIRECTION('',(0.E0,0.E0,1.E0));
#242=AXIS2_PLACEMENT_3D('',#239,#240,#241);
#243=CYLINDRICAL_SURFACE('',#242,1.E0);
#244=ORIENTED_EDGE('',*,*,#205,.F.);
#245=ORIENTED_EDGE('',*,*,#185,.F.);
#246=ORIENTED_EDGE('',*,*,#154,.F.);
#247=ORIENTED_EDGE('',*,*,#233,.F.);
#248=EDGE_LOOP('',(#244,#245,#246,#247));
#249=FACE_OUTER_BOUND('',#248,.F.);
#250=ADVANCED_FACE('',(#249),#243,.T.);
#251=CARTESIAN_POINT('',(0.E0,-4.65E1,-3.275E1));
#252=DIRECTION('',(0.E0,0.E0,1.E0));
#253=DIRECTION('',(1.E0,0.E0,0.E0));
#254=AXIS2_PLACEMENT_3D('',#251,#252,#253);
#255=PLANE('',#254);
#257=ORIENTED_EDGE('',*,*,#256,.T.);
#258=ORIENTED_EDGE('',*,*,#197,.T.);
#259=ORIENTED_EDGE('',*,*,#221,.T.);
#260=ORIENTED_EDGE('',*,*,#148,.T.);
#261=EDGE_LOOP('',(#257,#258,#259,#260));
#262=FACE_OUTER_BOUND('',#261,.F.);
#263=ADVANCED_FACE('',(#262),#255,.F.);
#264=CARTESIAN_POINT('',(6.1E1,-4.74E1,-3.175E1));
#265=DIRECTION('',(0.E0,1.E0,0.E0));
#266=DIRECTION('',(0.E0,0.E0,1.E0));
#267=AXIS2_PLACEMENT_3D('',#264,#265,#266);
#268=CYLINDRICAL_SURFACE('',#267,1.E0);
#269=ORIENTED_EDGE('',*,*,#146,.F.);
#271=ORIENTED_EDGE('',*,*,#270,.F.);
#272=ORIENTED_EDGE('',*,*,#199,.F.);
#273=ORIENTED_EDGE('',*,*,#256,.F.);
#274=EDGE_LOOP('',(#269,#271,#272,#273));
#275=FACE_OUTER_BOUND('',#274,.F.);
#276=ADVANCED_FACE('',(#275),#268,.T.);
#277=CARTESIAN_POINT('',(6.2E1,-4.65E1,-5.E-1));
#278=DIRECTION('',(1.E0,0.E0,0.E0));
#279=DIRECTION('',(0.E0,0.E0,1.E0));
#280=AXIS2_PLACEMENT_3D('',#277,#278,#279);
#281=PLANE('',#280);
#282=ORIENTED_EDGE('',*,*,#171,.T.);
#283=ORIENTED_EDGE('',*,*,#201,.F.);
#284=ORIENTED_EDGE('',*,*,#270,.T.);
#285=ORIENTED_EDGE('',*,*,#144,.T.);
#286=EDGE_LOOP('',(#282,#283,#284,#285));
#287=FACE_OUTER_BOUND('',#286,.F.);
#288=ADVANCED_FACE('',(#287),#281,.T.);
#289=CLOSED_SHELL('',(#160,#175,#189,#211,#225,#238,#250,#263,#276,#288));
#290=MANIFOLD_SOLID_BREP('',#289);
#291=(LENGTH_UNIT()NAMED_UNIT(*)SI_UNIT(.MILLI.,.METRE.));
#292=DIMENSIONAL_EXPONENTS(0.E0,0.E0,0.E0,0.E0,0.E0,0.E0,0.E0);
#293=(NAMED_UNIT(*)PLANE_ANGLE_UNIT()SI_UNIT($,.RADIAN.));
#294=PLANE_ANGLE_MEASURE_WITH_UNIT(PLANE_ANGLE_MEASURE(1.745329251994E-2),#293);
#295=(CONVERSION_BASED_UNIT('DEGREE',#294)NAMED_UNIT(#292)PLANE_ANGLE_UNIT());
#296=(NAMED_UNIT(*)SI_UNIT($,.STERADIAN.)SOLID_ANGLE_UNIT());
#297=UNCERTAINTY_MEASURE_WITH_UNIT(LENGTH_MEASURE(1.397781344562E-2),#291,
'closure',
'Maximum model space distance between geometric entities at asserted connectivities');
#298=(GEOMETRIC_REPRESENTATION_CONTEXT(3)GLOBAL_UNCERTAINTY_ASSIGNED_CONTEXT((
#297))GLOBAL_UNIT_ASSIGNED_CONTEXT((#291,#295,#296))REPRESENTATION_CONTEXT
('ID1','3'));
#300=APPLICATION_CONTEXT(
'CONFIGURATION CONTROLLED 3D DESIGNS OF MECHANICAL PARTS AND ASSEMBLIES');
#301=APPLICATION_PROTOCOL_DEFINITION('international standard',
'config_control_design',1994,#300);
#302=DESIGN_CONTEXT('',#300,'design');
#303=MECHANICAL_CONTEXT('',#300,'mechanical');
#304=PRODUCT('2015L-PR','2015L-PR','NOT SPECIFIED',(#303));
#305=PRODUCT_DEFINITION_FORMATION_WITH_SPECIFIED_SOURCE('','LAST_VERSION',#304,
.MADE.);
#309=PRODUCT_CATEGORY('part','');
#310=PRODUCT_RELATED_PRODUCT_CATEGORY('detail','',(#304));
#311=PRODUCT_CATEGORY_RELATIONSHIP('','',#309,#310);
#312=SECURITY_CLASSIFICATION_LEVEL('unclassified');
#313=SECURITY_CLASSIFICATION('','',#312);
#314=CC_DESIGN_SECURITY_CLASSIFICATION(#313,(#305));
#315=APPROVAL_STATUS('approved');
#316=APPROVAL(#315,'');
#317=CC_DESIGN_APPROVAL(#316,(#313,#305,#306));
#318=CALENDAR_DATE(108,14,8);
#319=COORDINATED_UNIVERSAL_TIME_OFFSET(3,0,.AHEAD.);
#320=LOCAL_TIME(13,58,5.1E1,#319);
#321=DATE_AND_TIME(#318,#320);
#322=APPROVAL_DATE_TIME(#321,#316);
#323=DATE_TIME_ROLE('creation_date');
#324=CC_DESIGN_DATE_AND_TIME_ASSIGNMENT(#321,#323,(#306));
#325=DATE_TIME_ROLE('classification_date');
#326=CC_DESIGN_DATE_AND_TIME_ASSIGNMENT(#321,#325,(#313));
#327=PERSON('UNSPECIFIED','UNSPECIFIED',$,$,$,$);
#328=ORGANIZATION('UNSPECIFIED','UNSPECIFIED','UNSPECIFIED');
#329=PERSON_AND_ORGANIZATION(#327,#328);
#330=APPROVAL_ROLE('approver');
#331=APPROVAL_PERSON_ORGANIZATION(#329,#316,#330);
#332=PERSON_AND_ORGANIZATION_ROLE('creator');
#333=CC_DESIGN_PERSON_AND_ORGANIZATION_ASSIGNMENT(#329,#332,(#305,#306));
#334=PERSON_AND_ORGANIZATION_ROLE('design_supplier');
#335=CC_DESIGN_PERSON_AND_ORGANIZATION_ASSIGNMENT(#329,#334,(#305));
#336=PERSON_AND_ORGANIZATION_ROLE('classification_officer');
#337=CC_DESIGN_PERSON_AND_ORGANIZATION_ASSIGNMENT(#329,#336,(#313));
#338=PERSON_AND_ORGANIZATION_ROLE('design_owner');
#339=CC_DESIGN_PERSON_AND_ORGANIZATION_ASSIGNMENT(#329,#338,(#304));
#5=CIRCLE('',#4,1.E0);
#10=CIRCLE('',#9,1.E0);
#15=CIRCLE('',#14,1.E0);
#20=CIRCLE('',#19,1.E0);
#41=CIRCLE('',#40,1.E0);
#46=CIRCLE('',#45,1.E0);
#55=CIRCLE('',#54,1.E0);
#60=CIRCLE('',#59,1.E0);
#142=EDGE_CURVE('',#132,#116,#5,.T.);
#144=EDGE_CURVE('',#115,#116,#104,.T.);
#146=EDGE_CURVE('',#115,#112,#10,.T.);
#148=EDGE_CURVE('',#111,#112,#92,.T.);
#150=EDGE_CURVE('',#111,#108,#15,.T.);
#152=EDGE_CURVE('',#107,#108,#76,.T.);
#154=EDGE_CURVE('',#107,#135,#20,.T.);
#156=EDGE_CURVE('',#135,#132,#36,.T.);
#167=EDGE_CURVE('',#131,#132,#24,.T.);
#169=EDGE_CURVE('',#120,#131,#55,.T.);
#171=EDGE_CURVE('',#116,#120,#28,.T.);
#181=EDGE_CURVE('',#131,#136,#32,.T.);
#185=EDGE_CURVE('',#135,#136,#80,.T.);
#195=EDGE_CURVE('',#123,#128,#41,.T.);
#197=EDGE_CURVE('',#127,#128,#88,.T.);
#199=EDGE_CURVE('',#127,#119,#46,.T.);
#201=EDGE_CURVE('',#119,#120,#50,.T.);
#205=EDGE_CURVE('',#136,#124,#60,.T.);
#207=EDGE_CURVE('',#123,#124,#72,.T.);
#218=EDGE_CURVE('',#108,#123,#64,.T.);
#221=EDGE_CURVE('',#128,#111,#68,.T.);
#233=EDGE_CURVE('',#124,#107,#84,.T.);
#256=EDGE_CURVE('',#112,#127,#100,.T.);
#270=EDGE_CURVE('',#119,#115,#96,.T.);
#299=ADVANCED_BREP_SHAPE_REPRESENTATION('',(#290),#298);
#306=PRODUCT_DEFINITION('design','',#305,#302);
#307=PRODUCT_DEFINITION_SHAPE('','SHAPE FOR 2015L-PR.',#306);
#308=SHAPE_DEFINITION_REPRESENTATION(#307,#299);
ENDSEC;
END-ISO-10303-21;
