ISO-10303-21;
HEADER;
FILE_DESCRIPTION((''),'2;1');
FILE_NAME('2015M-PR','2008-08-14T',('oluf'),(''),
'PRO/ENGINEER BY PARAMETRIC TECHNOLOGY CORPORATION, 2002310',
'PRO/ENGINEER BY PARAMETRIC TECHNOLOGY CORPORATION, 2002310','');
FILE_SCHEMA(('CONFIG_CONTROL_DESIGN'));
ENDSEC;
DATA;
#1=CARTESIAN_POINT('',(-6.025E1,-4.54E1,-3.2E1));
#2=DIRECTION('',(0.E0,-1.E0,0.E0));
#3=DIRECTION('',(-1.E0,0.E0,-1.000000082740E-8));
#4=AXIS2_PLACEMENT_3D('',#1,#2,#3);
#6=CARTESIAN_POINT('',(6.025E1,-4.54E1,-3.2E1));
#7=DIRECTION('',(0.E0,-1.E0,0.E0));
#8=DIRECTION('',(3.750000132641E-8,0.E0,-1.E0));
#9=AXIS2_PLACEMENT_3D('',#6,#7,#8);
#11=CARTESIAN_POINT('',(6.025E1,-4.54E1,1.1E1));
#12=DIRECTION('',(0.E0,-1.E0,0.E0));
#13=DIRECTION('',(1.E0,0.E0,1.000000082740E-8));
#14=AXIS2_PLACEMENT_3D('',#11,#12,#13);
#16=CARTESIAN_POINT('',(-6.025E1,-4.54E1,1.1E1));
#17=DIRECTION('',(0.E0,-1.E0,0.E0));
#18=DIRECTION('',(-3.750000132641E-8,0.E0,1.E0));
#19=AXIS2_PLACEMENT_3D('',#16,#17,#18);
#21=DIRECTION('',(0.E0,0.E0,1.E0));
#22=VECTOR('',#21,4.300000000667E1);
#23=CARTESIAN_POINT('',(-6.125E1,-4.54E1,-3.200000000321E1));
#24=LINE('',#23,#22);
#25=DIRECTION('',(0.E0,-1.E0,0.E0));
#26=VECTOR('',#25,1.6E0);
#27=CARTESIAN_POINT('',(-6.025000001250E1,-4.54E1,-3.3E1));
#28=LINE('',#27,#26);
#29=DIRECTION('',(0.E0,1.E0,0.E0));
#30=VECTOR('',#29,1.6E0);
#31=CARTESIAN_POINT('',(-6.125E1,-4.7E1,-3.200000000321E1));
#32=LINE('',#31,#30);
#33=CARTESIAN_POINT('',(-6.025E1,-4.7E1,1.1E1));
#34=DIRECTION('',(0.E0,-1.E0,0.E0));
#35=DIRECTION('',(-3.750000132641E-8,0.E0,1.E0));
#36=AXIS2_PLACEMENT_3D('',#33,#34,#35);
#38=DIRECTION('',(-1.E0,0.E0,0.E0));
#39=VECTOR('',#38,1.205000000250E2);
#40=CARTESIAN_POINT('',(6.025000001236E1,-4.7E1,1.2E1));
#41=LINE('',#40,#39);
#42=CARTESIAN_POINT('',(6.025E1,-4.7E1,1.1E1));
#43=DIRECTION('',(0.E0,-1.E0,0.E0));
#44=DIRECTION('',(1.E0,0.E0,1.000000082740E-8));
#45=AXIS2_PLACEMENT_3D('',#42,#43,#44);
#47=DIRECTION('',(0.E0,0.E0,1.E0));
#48=VECTOR('',#47,4.300000000667E1);
#49=CARTESIAN_POINT('',(6.125E1,-4.7E1,-3.200000000326E1));
#50=LINE('',#49,#48);
#51=CARTESIAN_POINT('',(6.025E1,-4.7E1,-3.2E1));
#52=DIRECTION('',(0.E0,-1.E0,0.E0));
#53=DIRECTION('',(3.750000132641E-8,0.E0,-1.E0));
#54=AXIS2_PLACEMENT_3D('',#51,#52,#53);
#56=DIRECTION('',(1.E0,0.E0,0.E0));
#57=VECTOR('',#56,1.205000000250E2);
#58=CARTESIAN_POINT('',(-6.025000001250E1,-4.7E1,-3.3E1));
#59=LINE('',#58,#57);
#60=CARTESIAN_POINT('',(-6.025E1,-4.7E1,-3.2E1));
#61=DIRECTION('',(0.E0,-1.E0,0.E0));
#62=DIRECTION('',(-1.E0,0.E0,-1.000000082740E-8));
#63=AXIS2_PLACEMENT_3D('',#60,#61,#62);
#65=DIRECTION('',(0.E0,0.E0,-1.E0));
#66=VECTOR('',#65,4.300000000667E1);
#67=CARTESIAN_POINT('',(-6.125E1,-4.7E1,1.100000000346E1));
#68=LINE('',#67,#66);
#69=DIRECTION('',(0.E0,-1.E0,0.E0));
#70=VECTOR('',#69,1.6E0);
#71=CARTESIAN_POINT('',(-6.125E1,-4.54E1,1.100000000346E1));
#72=LINE('',#71,#70);
#73=DIRECTION('',(0.E0,1.E0,0.E0));
#74=VECTOR('',#73,1.6E0);
#75=CARTESIAN_POINT('',(-6.025000001264E1,-4.7E1,1.2E1));
#76=LINE('',#75,#74);
#77=DIRECTION('',(-1.E0,0.E0,0.E0));
#78=VECTOR('',#77,1.205000000250E2);
#79=CARTESIAN_POINT('',(6.025000001236E1,-4.54E1,1.2E1));
#80=LINE('',#79,#78);
#81=DIRECTION('',(0.E0,-1.E0,0.E0));
#82=VECTOR('',#81,1.6E0);
#83=CARTESIAN_POINT('',(6.025000001236E1,-4.54E1,1.2E1));
#84=LINE('',#83,#82);
#85=DIRECTION('',(0.E0,1.E0,0.E0));
#86=VECTOR('',#85,1.6E0);
#87=CARTESIAN_POINT('',(6.125E1,-4.7E1,1.100000000340E1));
#88=LINE('',#87,#86);
#89=DIRECTION('',(0.E0,0.E0,-1.E0));
#90=VECTOR('',#89,4.300000000667E1);
#91=CARTESIAN_POINT('',(6.125E1,-4.54E1,1.100000000340E1));
#92=LINE('',#91,#90);
#93=DIRECTION('',(0.E0,-1.E0,0.E0));
#94=VECTOR('',#93,1.6E0);
#95=CARTESIAN_POINT('',(6.125E1,-4.54E1,-3.200000000326E1));
#96=LINE('',#95,#94);
#97=DIRECTION('',(0.E0,1.E0,0.E0));
#98=VECTOR('',#97,1.6E0);
#99=CARTESIAN_POINT('',(6.025000001250E1,-4.7E1,-3.3E1));
#100=LINE('',#99,#98);
#101=DIRECTION('',(1.E0,0.E0,0.E0));
#102=VECTOR('',#101,1.205000000250E2);
#103=CARTESIAN_POINT('',(-6.025000001250E1,-4.54E1,-3.3E1));
#104=LINE('',#103,#102);
#105=DIRECTION('',(-1.E0,0.E0,0.E0));
#106=VECTOR('',#105,1.145000000183E2);
#107=CARTESIAN_POINT('',(5.725000000917E1,-4.54E1,-2.999999999500E1));
#108=LINE('',#107,#106);
#109=DIRECTION('',(9.166662096050E-9,-1.E0,5.000003966416E-9));
#110=VECTOR('',#109,1.E0);
#111=CARTESIAN_POINT('',(5.725E1,-4.44E1,-3.E1));
#112=LINE('',#111,#110);
#113=DIRECTION('',(0.E0,0.E0,1.E0));
#114=VECTOR('',#113,3.899999999E1);
#115=CARTESIAN_POINT('',(5.725000000917E1,-4.54E1,-2.999999999500E1));
#116=LINE('',#115,#114);
#117=DIRECTION('',(1.E0,0.E0,0.E0));
#118=VECTOR('',#117,1.145000000183E2);
#119=CARTESIAN_POINT('',(-5.725000000917E1,-4.54E1,8.999999995E0));
#120=LINE('',#119,#118);
#121=DIRECTION('',(-9.166662096050E-9,-1.E0,-5.000000413702E-9));
#122=VECTOR('',#121,1.E0);
#123=CARTESIAN_POINT('',(-5.725E1,-4.44E1,9.E0));
#124=LINE('',#123,#122);
#125=DIRECTION('',(-9.166662096050E-9,1.E0,5.000000413702E-9));
#126=VECTOR('',#125,1.E0);
#127=CARTESIAN_POINT('',(5.725000000917E1,-4.54E1,8.999999995E0));
#128=LINE('',#127,#126);
#129=DIRECTION('',(9.166662096050E-9,1.E0,-5.000003966416E-9));
#130=VECTOR('',#129,1.E0);
#131=CARTESIAN_POINT('',(-5.725000000917E1,-4.54E1,-2.999999999500E1));
#132=LINE('',#131,#130);
#133=DIRECTION('',(0.E0,0.E0,-1.E0));
#134=VECTOR('',#133,3.899999999E1);
#135=CARTESIAN_POINT('',(-5.725000000917E1,-4.54E1,8.999999995E0));
#136=LINE('',#135,#134);
#137=DIRECTION('',(-1.E0,0.E0,0.E0));
#138=VECTOR('',#137,1.145E2);
#139=CARTESIAN_POINT('',(5.725E1,-4.44E1,9.E0));
#140=LINE('',#139,#138);
#141=DIRECTION('',(0.E0,0.E0,-1.E0));
#142=VECTOR('',#141,3.9E1);
#143=CARTESIAN_POINT('',(-5.725E1,-4.44E1,9.E0));
#144=LINE('',#143,#142);
#145=DIRECTION('',(1.E0,0.E0,0.E0));
#146=VECTOR('',#145,1.145E2);
#147=CARTESIAN_POINT('',(-5.725E1,-4.44E1,-3.E1));
#148=LINE('',#147,#146);
#149=DIRECTION('',(0.E0,0.E0,1.E0));
#150=VECTOR('',#149,3.9E1);
#151=CARTESIAN_POINT('',(5.725E1,-4.44E1,-3.E1));
#152=LINE('',#151,#150);
#153=CARTESIAN_POINT('',(-6.125E1,-4.54E1,-3.200000000321E1));
#154=CARTESIAN_POINT('',(-6.125E1,-4.54E1,1.100000000346E1));
#155=VERTEX_POINT('',#153);
#156=VERTEX_POINT('',#154);
#157=CARTESIAN_POINT('',(6.125E1,-4.54E1,1.100000000340E1));
#158=CARTESIAN_POINT('',(6.125E1,-4.54E1,-3.200000000326E1));
#159=VERTEX_POINT('',#157);
#160=VERTEX_POINT('',#158);
#161=CARTESIAN_POINT('',(5.725000000917E1,-4.54E1,-2.999999999500E1));
#162=CARTESIAN_POINT('',(5.725000000917E1,-4.54E1,8.999999995E0));
#163=VERTEX_POINT('',#161);
#164=VERTEX_POINT('',#162);
#165=CARTESIAN_POINT('',(-5.725000000917E1,-4.54E1,8.999999995E0));
#166=CARTESIAN_POINT('',(-5.725000000917E1,-4.54E1,-2.999999999500E1));
#167=VERTEX_POINT('',#165);
#168=VERTEX_POINT('',#166);
#169=CARTESIAN_POINT('',(-6.025000003750E1,-4.7E1,1.2E1));
#170=CARTESIAN_POINT('',(-6.125E1,-4.7E1,1.100000001E1));
#171=VERTEX_POINT('',#169);
#172=VERTEX_POINT('',#170);
#173=CARTESIAN_POINT('',(-6.025000001264E1,-4.54E1,1.2E1));
#174=VERTEX_POINT('',#173);
#175=CARTESIAN_POINT('',(6.025000001236E1,-4.7E1,1.2E1));
#176=VERTEX_POINT('',#175);
#177=CARTESIAN_POINT('',(6.025000001236E1,-4.54E1,1.2E1));
#178=VERTEX_POINT('',#177);
#179=CARTESIAN_POINT('',(6.125E1,-4.7E1,1.100000001E1));
#180=VERTEX_POINT('',#179);
#181=CARTESIAN_POINT('',(6.025000003750E1,-4.7E1,-3.3E1));
#182=CARTESIAN_POINT('',(6.125E1,-4.7E1,-3.200000001E1));
#183=VERTEX_POINT('',#181);
#184=VERTEX_POINT('',#182);
#185=CARTESIAN_POINT('',(6.025000001250E1,-4.54E1,-3.3E1));
#186=VERTEX_POINT('',#185);
#187=CARTESIAN_POINT('',(-6.025000001250E1,-4.7E1,-3.3E1));
#188=VERTEX_POINT('',#187);
#189=CARTESIAN_POINT('',(-6.025000001250E1,-4.54E1,-3.3E1));
#190=VERTEX_POINT('',#189);
#191=CARTESIAN_POINT('',(-6.125E1,-4.7E1,-3.200000001E1));
#192=VERTEX_POINT('',#191);
#193=CARTESIAN_POINT('',(5.725E1,-4.44E1,-3.E1));
#194=CARTESIAN_POINT('',(5.725E1,-4.44E1,9.E0));
#195=VERTEX_POINT('',#193);
#196=VERTEX_POINT('',#194);
#197=CARTESIAN_POINT('',(-5.725E1,-4.44E1,9.E0));
#198=CARTESIAN_POINT('',(-5.725E1,-4.44E1,-3.E1));
#199=VERTEX_POINT('',#197);
#200=VERTEX_POINT('',#198);
#201=CARTESIAN_POINT('',(0.E0,-4.54E1,-1.05E1));
#202=DIRECTION('',(0.E0,1.E0,0.E0));
#203=DIRECTION('',(0.E0,0.E0,-1.E0));
#204=AXIS2_PLACEMENT_3D('',#201,#202,#203);
#205=PLANE('',#204);
#207=ORIENTED_EDGE('',*,*,#206,.F.);
#209=ORIENTED_EDGE('',*,*,#208,.T.);
#211=ORIENTED_EDGE('',*,*,#210,.T.);
#213=ORIENTED_EDGE('',*,*,#212,.T.);
#215=ORIENTED_EDGE('',*,*,#214,.F.);
#217=ORIENTED_EDGE('',*,*,#216,.T.);
#219=ORIENTED_EDGE('',*,*,#218,.T.);
#221=ORIENTED_EDGE('',*,*,#220,.T.);
#222=EDGE_LOOP('',(#207,#209,#211,#213,#215,#217,#219,#221));
#223=FACE_OUTER_BOUND('',#222,.F.);
#225=ORIENTED_EDGE('',*,*,#224,.T.);
#227=ORIENTED_EDGE('',*,*,#226,.F.);
#229=ORIENTED_EDGE('',*,*,#228,.T.);
#231=ORIENTED_EDGE('',*,*,#230,.F.);
#232=EDGE_LOOP('',(#225,#227,#229,#231));
#233=FACE_BOUND('',#232,.F.);
#234=ADVANCED_FACE('',(#223,#233),#205,.T.);
#235=CARTESIAN_POINT('',(-6.125E1,-4.62E1,-1.05E1));
#236=DIRECTION('',(1.E0,0.E0,0.E0));
#237=DIRECTION('',(0.E0,0.E0,-1.E0));
#238=AXIS2_PLACEMENT_3D('',#235,#236,#237);
#239=PLANE('',#238);
#241=ORIENTED_EDGE('',*,*,#240,.T.);
#242=ORIENTED_EDGE('',*,*,#206,.T.);
#244=ORIENTED_EDGE('',*,*,#243,.T.);
#246=ORIENTED_EDGE('',*,*,#245,.T.);
#247=EDGE_LOOP('',(#241,#242,#244,#246));
#248=FACE_OUTER_BOUND('',#247,.F.);
#249=ADVANCED_FACE('',(#248),#239,.F.);
#250=CARTESIAN_POINT('',(-6.025E1,-4.54E1,-3.2E1));
#251=DIRECTION('',(0.E0,-1.E0,0.E0));
#252=DIRECTION('',(0.E0,0.E0,-1.E0));
#253=AXIS2_PLACEMENT_3D('',#250,#251,#252);
#254=CYLINDRICAL_SURFACE('',#253,1.E0);
#256=ORIENTED_EDGE('',*,*,#255,.T.);
#258=ORIENTED_EDGE('',*,*,#257,.F.);
#259=ORIENTED_EDGE('',*,*,#208,.F.);
#260=ORIENTED_EDGE('',*,*,#240,.F.);
#261=EDGE_LOOP('',(#256,#258,#259,#260));
#262=FACE_OUTER_BOUND('',#261,.F.);
#263=ADVANCED_FACE('',(#262),#254,.T.);
#264=CARTESIAN_POINT('',(0.E0,-4.7E1,-1.05E1));
#265=DIRECTION('',(0.E0,1.E0,0.E0));
#266=DIRECTION('',(0.E0,0.E0,-1.E0));
#267=AXIS2_PLACEMENT_3D('',#264,#265,#266);
#268=PLANE('',#267);
#270=ORIENTED_EDGE('',*,*,#269,.F.);
#272=ORIENTED_EDGE('',*,*,#271,.F.);
#274=ORIENTED_EDGE('',*,*,#273,.F.);
#276=ORIENTED_EDGE('',*,*,#275,.F.);
#278=ORIENTED_EDGE('',*,*,#277,.F.);
#280=ORIENTED_EDGE('',*,*,#279,.F.);
#281=ORIENTED_EDGE('',*,*,#255,.F.);
#282=ORIENTED_EDGE('',*,*,#245,.F.);
#283=EDGE_LOOP('',(#270,#272,#274,#276,#278,#280,#281,#282));
#284=FACE_OUTER_BOUND('',#283,.F.);
#285=ADVANCED_FACE('',(#284),#268,.F.);
#286=CARTESIAN_POINT('',(-6.025E1,-4.54E1,1.1E1));
#287=DIRECTION('',(0.E0,-1.E0,0.E0));
#288=DIRECTION('',(0.E0,0.E0,-1.E0));
#289=AXIS2_PLACEMENT_3D('',#286,#287,#288);
#290=CYLINDRICAL_SURFACE('',#289,1.E0);
#291=ORIENTED_EDGE('',*,*,#269,.T.);
#292=ORIENTED_EDGE('',*,*,#243,.F.);
#293=ORIENTED_EDGE('',*,*,#220,.F.);
#295=ORIENTED_EDGE('',*,*,#294,.F.);
#296=EDGE_LOOP('',(#291,#292,#293,#295));
#297=FACE_OUTER_BOUND('',#296,.F.);
#298=ADVANCED_FACE('',(#297),#290,.T.);
#299=CARTESIAN_POINT('',(0.E0,-4.62E1,1.2E1));
#300=DIRECTION('',(0.E0,0.E0,1.E0));
#301=DIRECTION('',(1.E0,0.E0,0.E0));
#302=AXIS2_PLACEMENT_3D('',#299,#300,#301);
#303=PLANE('',#302);
#304=ORIENTED_EDGE('',*,*,#271,.T.);
#305=ORIENTED_EDGE('',*,*,#294,.T.);
#306=ORIENTED_EDGE('',*,*,#218,.F.);
#308=ORIENTED_EDGE('',*,*,#307,.T.);
#309=EDGE_LOOP('',(#304,#305,#306,#308));
#310=FACE_OUTER_BOUND('',#309,.F.);
#311=ADVANCED_FACE('',(#310),#303,.T.);
#312=CARTESIAN_POINT('',(6.025E1,-4.54E1,1.1E1));
#313=DIRECTION('',(0.E0,-1.E0,0.E0));
#314=DIRECTION('',(0.E0,0.E0,-1.E0));
#315=AXIS2_PLACEMENT_3D('',#312,#313,#314);
#316=CYLINDRICAL_SURFACE('',#315,1.E0);
#317=ORIENTED_EDGE('',*,*,#273,.T.);
#318=ORIENTED_EDGE('',*,*,#307,.F.);
#319=ORIENTED_EDGE('',*,*,#216,.F.);
#321=ORIENTED_EDGE('',*,*,#320,.F.);
#322=EDGE_LOOP('',(#317,#318,#319,#321));
#323=FACE_OUTER_BOUND('',#322,.F.);
#324=ADVANCED_FACE('',(#323),#316,.T.);
#325=CARTESIAN_POINT('',(6.125E1,-4.62E1,-1.05E1));
#326=DIRECTION('',(1.E0,0.E0,0.E0));
#327=DIRECTION('',(0.E0,0.E0,1.E0));
#328=AXIS2_PLACEMENT_3D('',#325,#326,#327);
#329=PLANE('',#328);
#330=ORIENTED_EDGE('',*,*,#320,.T.);
#331=ORIENTED_EDGE('',*,*,#214,.T.);
#333=ORIENTED_EDGE('',*,*,#332,.T.);
#334=ORIENTED_EDGE('',*,*,#275,.T.);
#335=EDGE_LOOP('',(#330,#331,#333,#334));
#336=FACE_OUTER_BOUND('',#335,.F.);
#337=ADVANCED_FACE('',(#336),#329,.T.);
#338=CARTESIAN_POINT('',(6.025E1,-4.54E1,-3.2E1));
#339=DIRECTION('',(0.E0,-1.E0,0.E0));
#340=DIRECTION('',(0.E0,0.E0,-1.E0));
#341=AXIS2_PLACEMENT_3D('',#338,#339,#340);
#342=CYLINDRICAL_SURFACE('',#341,1.E0);
#343=ORIENTED_EDGE('',*,*,#277,.T.);
#344=ORIENTED_EDGE('',*,*,#332,.F.);
#345=ORIENTED_EDGE('',*,*,#212,.F.);
#347=ORIENTED_EDGE('',*,*,#346,.F.);
#348=EDGE_LOOP('',(#343,#344,#345,#347));
#349=FACE_OUTER_BOUND('',#348,.F.);
#350=ADVANCED_FACE('',(#349),#342,.T.);
#351=CARTESIAN_POINT('',(0.E0,-4.62E1,-3.3E1));
#352=DIRECTION('',(0.E0,0.E0,1.E0));
#353=DIRECTION('',(0.E0,1.E0,0.E0));
#354=AXIS2_PLACEMENT_3D('',#351,#352,#353);
#355=PLANE('',#354);
#356=ORIENTED_EDGE('',*,*,#279,.T.);
#357=ORIENTED_EDGE('',*,*,#346,.T.);
#358=ORIENTED_EDGE('',*,*,#210,.F.);
#359=ORIENTED_EDGE('',*,*,#257,.T.);
#360=EDGE_LOOP('',(#356,#357,#358,#359));
#361=FACE_OUTER_BOUND('',#360,.F.);
#362=ADVANCED_FACE('',(#361),#355,.F.);
#363=CARTESIAN_POINT('',(0.E0,-4.49E1,-3.E1));
#364=DIRECTION('',(0.E0,0.E0,1.E0));
#365=DIRECTION('',(-1.E0,0.E0,0.E0));
#366=AXIS2_PLACEMENT_3D('',#363,#364,#365);
#367=PLANE('',#366);
#368=ORIENTED_EDGE('',*,*,#224,.F.);
#370=ORIENTED_EDGE('',*,*,#369,.F.);
#372=ORIENTED_EDGE('',*,*,#371,.F.);
#374=ORIENTED_EDGE('',*,*,#373,.F.);
#375=EDGE_LOOP('',(#368,#370,#372,#374));
#376=FACE_OUTER_BOUND('',#375,.F.);
#377=ADVANCED_FACE('',(#376),#367,.F.);
#378=CARTESIAN_POINT('',(5.725E1,-4.49E1,-1.05E1));
#379=DIRECTION('',(1.E0,0.E0,0.E0));
#380=DIRECTION('',(0.E0,0.E0,1.E0));
#381=AXIS2_PLACEMENT_3D('',#378,#379,#380);
#382=PLANE('',#381);
#384=ORIENTED_EDGE('',*,*,#383,.T.);
#386=ORIENTED_EDGE('',*,*,#385,.F.);
#387=ORIENTED_EDGE('',*,*,#369,.T.);
#388=ORIENTED_EDGE('',*,*,#230,.T.);
#389=EDGE_LOOP('',(#384,#386,#387,#388));
#390=FACE_OUTER_BOUND('',#389,.F.);
#391=ADVANCED_FACE('',(#390),#382,.T.);
#392=CARTESIAN_POINT('',(0.E0,-4.49E1,9.E0));
#393=DIRECTION('',(0.E0,0.E0,1.E0));
#394=DIRECTION('',(0.E0,-1.E0,0.E0));
#395=AXIS2_PLACEMENT_3D('',#392,#393,#394);
#396=PLANE('',#395);
#397=ORIENTED_EDGE('',*,*,#228,.F.);
#399=ORIENTED_EDGE('',*,*,#398,.F.);
#401=ORIENTED_EDGE('',*,*,#400,.F.);
#402=ORIENTED_EDGE('',*,*,#383,.F.);
#403=EDGE_LOOP('',(#397,#399,#401,#402));
#404=FACE_OUTER_BOUND('',#403,.F.);
#405=ADVANCED_FACE('',(#404),#396,.T.);
#406=CARTESIAN_POINT('',(-5.725E1,-4.49E1,-1.05E1));
#407=DIRECTION('',(1.E0,0.E0,0.E0));
#408=DIRECTION('',(0.E0,0.E0,-1.E0));
#409=AXIS2_PLACEMENT_3D('',#406,#407,#408);
#410=PLANE('',#409);
#411=ORIENTED_EDGE('',*,*,#373,.T.);
#413=ORIENTED_EDGE('',*,*,#412,.F.);
#414=ORIENTED_EDGE('',*,*,#398,.T.);
#415=ORIENTED_EDGE('',*,*,#226,.T.);
#416=EDGE_LOOP('',(#411,#413,#414,#415));
#417=FACE_OUTER_BOUND('',#416,.F.);
#418=ADVANCED_FACE('',(#417),#410,.F.);
#419=CARTESIAN_POINT('',(0.E0,-4.44E1,-1.05E1));
#420=DIRECTION('',(0.E0,1.E0,0.E0));
#421=DIRECTION('',(0.E0,0.E0,-1.E0));
#422=AXIS2_PLACEMENT_3D('',#419,#420,#421);
#423=PLANE('',#422);
#424=ORIENTED_EDGE('',*,*,#400,.T.);
#425=ORIENTED_EDGE('',*,*,#412,.T.);
#426=ORIENTED_EDGE('',*,*,#371,.T.);
#427=ORIENTED_EDGE('',*,*,#385,.T.);
#428=EDGE_LOOP('',(#424,#425,#426,#427));
#429=FACE_OUTER_BOUND('',#428,.F.);
#430=ADVANCED_FACE('',(#429),#423,.T.);
#431=CLOSED_SHELL('',(#234,#249,#263,#285,#298,#311,#324,#337,#350,#362,#377,
#391,#405,#418,#430));
#432=MANIFOLD_SOLID_BREP('',#431);
#433=(LENGTH_UNIT()NAMED_UNIT(*)SI_UNIT(.MILLI.,.METRE.));
#434=DIMENSIONAL_EXPONENTS(0.E0,0.E0,0.E0,0.E0,0.E0,0.E0,0.E0);
#435=(NAMED_UNIT(*)PLANE_ANGLE_UNIT()SI_UNIT($,.RADIAN.));
#436=PLANE_ANGLE_MEASURE_WITH_UNIT(PLANE_ANGLE_MEASURE(1.745329251994E-2),#435);
#437=(CONVERSION_BASED_UNIT('DEGREE',#436)NAMED_UNIT(#434)PLANE_ANGLE_UNIT());
#438=(NAMED_UNIT(*)SI_UNIT($,.STERADIAN.)SOLID_ANGLE_UNIT());
#439=UNCERTAINTY_MEASURE_WITH_UNIT(LENGTH_MEASURE(1.305245072255E-2),#433,
'closure',
'Maximum model space distance between geometric entities at asserted connectivities');
#440=(GEOMETRIC_REPRESENTATION_CONTEXT(3)GLOBAL_UNCERTAINTY_ASSIGNED_CONTEXT((
#439))GLOBAL_UNIT_ASSIGNED_CONTEXT((#433,#437,#438))REPRESENTATION_CONTEXT
('ID1','3'));
#442=APPLICATION_CONTEXT(
'CONFIGURATION CONTROLLED 3D DESIGNS OF MECHANICAL PARTS AND ASSEMBLIES');
#443=APPLICATION_PROTOCOL_DEFINITION('international standard',
'config_control_design',1994,#442);
#444=DESIGN_CONTEXT('',#442,'design');
#445=MECHANICAL_CONTEXT('',#442,'mechanical');
#446=PRODUCT('2015M-PR','2015M-PR','NOT SPECIFIED',(#445));
#447=PRODUCT_DEFINITION_FORMATION_WITH_SPECIFIED_SOURCE('','LAST_VERSION',#446,
.MADE.);
#451=PRODUCT_CATEGORY('part','');
#452=PRODUCT_RELATED_PRODUCT_CATEGORY('detail','',(#446));
#453=PRODUCT_CATEGORY_RELATIONSHIP('','',#451,#452);
#454=SECURITY_CLASSIFICATION_LEVEL('unclassified');
#455=SECURITY_CLASSIFICATION('','',#454);
#456=CC_DESIGN_SECURITY_CLASSIFICATION(#455,(#447));
#457=APPROVAL_STATUS('approved');
#458=APPROVAL(#457,'');
#459=CC_DESIGN_APPROVAL(#458,(#455,#447,#448));
#460=CALENDAR_DATE(108,14,8);
#461=COORDINATED_UNIVERSAL_TIME_OFFSET(3,0,.AHEAD.);
#462=LOCAL_TIME(13,52,5.6E1,#461);
#463=DATE_AND_TIME(#460,#462);
#464=APPROVAL_DATE_TIME(#463,#458);
#465=DATE_TIME_ROLE('creation_date');
#466=CC_DESIGN_DATE_AND_TIME_ASSIGNMENT(#463,#465,(#448));
#467=DATE_TIME_ROLE('classification_date');
#468=CC_DESIGN_DATE_AND_TIME_ASSIGNMENT(#463,#467,(#455));
#469=PERSON('UNSPECIFIED','UNSPECIFIED',$,$,$,$);
#470=ORGANIZATION('UNSPECIFIED','UNSPECIFIED','UNSPECIFIED');
#471=PERSON_AND_ORGANIZATION(#469,#470);
#472=APPROVAL_ROLE('approver');
#473=APPROVAL_PERSON_ORGANIZATION(#471,#458,#472);
#474=PERSON_AND_ORGANIZATION_ROLE('creator');
#475=CC_DESIGN_PERSON_AND_ORGANIZATION_ASSIGNMENT(#471,#474,(#447,#448));
#476=PERSON_AND_ORGANIZATION_ROLE('design_supplier');
#477=CC_DESIGN_PERSON_AND_ORGANIZATION_ASSIGNMENT(#471,#476,(#447));
#478=PERSON_AND_ORGANIZATION_ROLE('classification_officer');
#479=CC_DESIGN_PERSON_AND_ORGANIZATION_ASSIGNMENT(#471,#478,(#455));
#480=PERSON_AND_ORGANIZATION_ROLE('design_owner');
#481=CC_DESIGN_PERSON_AND_ORGANIZATION_ASSIGNMENT(#471,#480,(#446));
#5=CIRCLE('',#4,1.E0);
#10=CIRCLE('',#9,1.E0);
#15=CIRCLE('',#14,1.E0);
#20=CIRCLE('',#19,1.E0);
#37=CIRCLE('',#36,1.E0);
#46=CIRCLE('',#45,1.E0);
#55=CIRCLE('',#54,1.E0);
#64=CIRCLE('',#63,1.E0);
#206=EDGE_CURVE('',#155,#156,#24,.T.);
#208=EDGE_CURVE('',#155,#190,#5,.T.);
#210=EDGE_CURVE('',#190,#186,#104,.T.);
#212=EDGE_CURVE('',#186,#160,#10,.T.);
#214=EDGE_CURVE('',#159,#160,#92,.T.);
#216=EDGE_CURVE('',#159,#178,#15,.T.);
#218=EDGE_CURVE('',#178,#174,#80,.T.);
#220=EDGE_CURVE('',#174,#156,#20,.T.);
#224=EDGE_CURVE('',#163,#168,#108,.T.);
#226=EDGE_CURVE('',#167,#168,#136,.T.);
#228=EDGE_CURVE('',#167,#164,#120,.T.);
#230=EDGE_CURVE('',#163,#164,#116,.T.);
#240=EDGE_CURVE('',#192,#155,#32,.T.);
#243=EDGE_CURVE('',#156,#172,#72,.T.);
#245=EDGE_CURVE('',#172,#192,#68,.T.);
#255=EDGE_CURVE('',#192,#188,#64,.T.);
#257=EDGE_CURVE('',#190,#188,#28,.T.);
#269=EDGE_CURVE('',#171,#172,#37,.T.);
#271=EDGE_CURVE('',#176,#171,#41,.T.);
#273=EDGE_CURVE('',#180,#176,#46,.T.);
#275=EDGE_CURVE('',#184,#180,#50,.T.);
#277=EDGE_CURVE('',#183,#184,#55,.T.);
#279=EDGE_CURVE('',#188,#183,#59,.T.);
#294=EDGE_CURVE('',#171,#174,#76,.T.);
#307=EDGE_CURVE('',#178,#176,#84,.T.);
#320=EDGE_CURVE('',#180,#159,#88,.T.);
#332=EDGE_CURVE('',#160,#184,#96,.T.);
#346=EDGE_CURVE('',#183,#186,#100,.T.);
#369=EDGE_CURVE('',#195,#163,#112,.T.);
#371=EDGE_CURVE('',#200,#195,#148,.T.);
#373=EDGE_CURVE('',#168,#200,#132,.T.);
#383=EDGE_CURVE('',#164,#196,#128,.T.);
#385=EDGE_CURVE('',#195,#196,#152,.T.);
#398=EDGE_CURVE('',#199,#167,#124,.T.);
#400=EDGE_CURVE('',#196,#199,#140,.T.);
#412=EDGE_CURVE('',#199,#200,#144,.T.);
#441=ADVANCED_BREP_SHAPE_REPRESENTATION('',(#432),#440);
#448=PRODUCT_DEFINITION('design','',#447,#444);
#449=PRODUCT_DEFINITION_SHAPE('','SHAPE FOR 2015M-PR.',#448);
#450=SHAPE_DEFINITION_REPRESENTATION(#449,#441);
ENDSEC;
END-ISO-10303-21;
