ISO-10303-21;
HEADER;
FILE_DESCRIPTION((''),'2;1');
FILE_NAME('2015S-PR','2008-08-14T',('oluf'),(''),
'PRO/ENGINEER BY PARAMETRIC TECHNOLOGY CORPORATION, 2002310',
'PRO/ENGINEER BY PARAMETRIC TECHNOLOGY CORPORATION, 2002310','');
FILE_SCHEMA(('CONFIG_CONTROL_DESIGN'));
ENDSEC;
DATA;
#1=CARTESIAN_POINT('',(-6.125E1,4.55E1,1.275E1));
#2=DIRECTION('',(0.E0,1.E0,0.E0));
#3=DIRECTION('',(-1.E0,0.E0,9.999983063835E-10));
#4=AXIS2_PLACEMENT_3D('',#1,#2,#3);
#6=CARTESIAN_POINT('',(6.125E1,4.55E1,1.275E1));
#7=DIRECTION('',(0.E0,1.E0,0.E0));
#8=DIRECTION('',(-6.050001388758E-8,0.E0,1.E0));
#9=AXIS2_PLACEMENT_3D('',#6,#7,#8);
#11=CARTESIAN_POINT('',(6.125E1,4.55E1,-1.225E1));
#12=DIRECTION('',(0.E0,1.E0,0.E0));
#13=DIRECTION('',(1.E0,0.E0,-9.999965300267E-10));
#14=AXIS2_PLACEMENT_3D('',#11,#12,#13);
#16=CARTESIAN_POINT('',(-6.125E1,4.55E1,-1.225E1));
#17=DIRECTION('',(0.E0,1.E0,0.E0));
#18=DIRECTION('',(6.050000678215E-8,0.E0,-1.E0));
#19=AXIS2_PLACEMENT_3D('',#16,#17,#18);
#21=DIRECTION('',(0.E0,1.E0,0.E0));
#22=VECTOR('',#21,1.75E0);
#23=CARTESIAN_POINT('',(-6.124999997983E1,4.55E1,1.375E1));
#24=LINE('',#23,#22);
#25=DIRECTION('',(0.E0,-1.E0,0.E0));
#26=VECTOR('',#25,1.75E0);
#27=CARTESIAN_POINT('',(-6.225E1,4.725E1,1.275000000021E1));
#28=LINE('',#27,#26);
#29=CARTESIAN_POINT('',(6.125E1,4.725E1,-1.225E1));
#30=DIRECTION('',(0.E0,-1.E0,0.E0));
#31=DIRECTION('',(-6.050000678215E-8,0.E0,-1.E0));
#32=AXIS2_PLACEMENT_3D('',#29,#30,#31);
#34=DIRECTION('',(0.E0,0.E0,1.E0));
#35=VECTOR('',#34,2.500000000080E1);
#36=CARTESIAN_POINT('',(6.225E1,4.725E1,-1.225000000040E1));
#37=LINE('',#36,#35);
#38=CARTESIAN_POINT('',(6.125E1,4.725E1,1.275E1));
#39=DIRECTION('',(0.E0,-1.E0,0.E0));
#40=DIRECTION('',(1.E0,0.E0,9.999965300267E-10));
#41=AXIS2_PLACEMENT_3D('',#38,#39,#40);
#43=CARTESIAN_POINT('',(-6.125E1,4.725E1,1.275E1));
#44=DIRECTION('',(0.E0,-1.E0,0.E0));
#45=DIRECTION('',(6.050001388758E-8,0.E0,1.E0));
#46=AXIS2_PLACEMENT_3D('',#43,#44,#45);
#48=CARTESIAN_POINT('',(-6.125E1,4.725E1,-1.225E1));
#49=DIRECTION('',(0.E0,-1.E0,0.E0));
#50=DIRECTION('',(-1.E0,0.E0,-9.999983063835E-10));
#51=AXIS2_PLACEMENT_3D('',#48,#49,#50);
#53=DIRECTION('',(0.E0,-1.E0,0.E0));
#54=VECTOR('',#53,1.75E0);
#55=CARTESIAN_POINT('',(6.225E1,4.725E1,-1.225000000040E1));
#56=LINE('',#55,#54);
#57=DIRECTION('',(0.E0,1.E0,0.E0));
#58=VECTOR('',#57,1.75E0);
#59=CARTESIAN_POINT('',(6.124999997970E1,4.55E1,-1.325E1));
#60=LINE('',#59,#58);
#61=DIRECTION('',(0.E0,0.E0,1.E0));
#62=VECTOR('',#61,2.500000000080E1);
#63=CARTESIAN_POINT('',(6.225E1,4.55E1,-1.225000000040E1));
#64=LINE('',#63,#62);
#65=DIRECTION('',(0.E0,-1.E0,0.E0));
#66=VECTOR('',#65,1.75E0);
#67=CARTESIAN_POINT('',(6.124999997970E1,4.725E1,1.375E1));
#68=LINE('',#67,#66);
#69=DIRECTION('',(0.E0,1.E0,0.E0));
#70=VECTOR('',#69,1.75E0);
#71=CARTESIAN_POINT('',(6.225E1,4.55E1,1.275000000040E1));
#72=LINE('',#71,#70);
#73=DIRECTION('',(-1.E0,0.E0,0.E0));
#74=VECTOR('',#73,1.224999999595E2);
#75=CARTESIAN_POINT('',(6.124999997970E1,4.725E1,1.375E1));
#76=LINE('',#75,#74);
#77=DIRECTION('',(1.E0,0.E0,0.E0));
#78=VECTOR('',#77,1.224999999595E2);
#79=CARTESIAN_POINT('',(-6.124999997983E1,4.55E1,1.375E1));
#80=LINE('',#79,#78);
#81=DIRECTION('',(-1.E0,0.E0,0.E0));
#82=VECTOR('',#81,1.224999999595E2);
#83=CARTESIAN_POINT('',(6.124999997970E1,4.725E1,-1.325E1));
#84=LINE('',#83,#82);
#85=DIRECTION('',(1.E0,0.E0,0.E0));
#86=VECTOR('',#85,1.224999999595E2);
#87=CARTESIAN_POINT('',(-6.124999997983E1,4.55E1,-1.325E1));
#88=LINE('',#87,#86);
#89=DIRECTION('',(0.E0,1.E0,0.E0));
#90=VECTOR('',#89,1.75E0);
#91=CARTESIAN_POINT('',(-6.225E1,4.55E1,-1.225000000021E1));
#92=LINE('',#91,#90);
#93=DIRECTION('',(0.E0,-1.E0,0.E0));
#94=VECTOR('',#93,1.75E0);
#95=CARTESIAN_POINT('',(-6.124999997983E1,4.725E1,-1.325E1));
#96=LINE('',#95,#94);
#97=DIRECTION('',(0.E0,0.E0,-1.E0));
#98=VECTOR('',#97,2.500000000041E1);
#99=CARTESIAN_POINT('',(-6.225E1,4.55E1,1.275000000021E1));
#100=LINE('',#99,#98);
#101=DIRECTION('',(0.E0,0.E0,1.E0));
#102=VECTOR('',#101,2.500000000041E1);
#103=CARTESIAN_POINT('',(-6.225E1,4.725E1,-1.225000000021E1));
#104=LINE('',#103,#102);
#105=CARTESIAN_POINT('',(-6.225E1,4.55E1,1.275000000021E1));
#106=CARTESIAN_POINT('',(-6.225E1,4.55E1,-1.225000000021E1));
#107=VERTEX_POINT('',#105);
#108=VERTEX_POINT('',#106);
#109=CARTESIAN_POINT('',(-6.124999997983E1,4.55E1,-1.325E1));
#110=CARTESIAN_POINT('',(6.124999997970E1,4.55E1,-1.325E1));
#111=VERTEX_POINT('',#109);
#112=VERTEX_POINT('',#110);
#113=CARTESIAN_POINT('',(6.225E1,4.55E1,-1.225000000040E1));
#114=CARTESIAN_POINT('',(6.225E1,4.55E1,1.275000000040E1));
#115=VERTEX_POINT('',#113);
#116=VERTEX_POINT('',#114);
#117=CARTESIAN_POINT('',(6.225E1,4.725E1,-1.225000000040E1));
#118=CARTESIAN_POINT('',(6.225E1,4.725E1,1.275000000040E1));
#119=VERTEX_POINT('',#117);
#120=VERTEX_POINT('',#118);
#121=CARTESIAN_POINT('',(6.124999997970E1,4.725E1,-1.325E1));
#122=CARTESIAN_POINT('',(-6.124999997983E1,4.725E1,-1.325E1));
#123=VERTEX_POINT('',#121);
#124=VERTEX_POINT('',#122);
#125=CARTESIAN_POINT('',(-6.225E1,4.725E1,-1.225000000021E1));
#126=CARTESIAN_POINT('',(-6.225E1,4.725E1,1.275000000021E1));
#127=VERTEX_POINT('',#125);
#128=VERTEX_POINT('',#126);
#129=CARTESIAN_POINT('',(6.124999997970E1,4.725E1,1.375E1));
#130=CARTESIAN_POINT('',(6.124999997970E1,4.55E1,1.375E1));
#131=VERTEX_POINT('',#129);
#132=VERTEX_POINT('',#130);
#133=CARTESIAN_POINT('',(-6.124999997983E1,4.55E1,1.375E1));
#134=CARTESIAN_POINT('',(-6.124999997983E1,4.725E1,1.375E1));
#135=VERTEX_POINT('',#133);
#136=VERTEX_POINT('',#134);
#137=CARTESIAN_POINT('',(0.E0,4.55E1,2.5E-1));
#138=DIRECTION('',(0.E0,1.E0,0.E0));
#139=DIRECTION('',(-1.E0,0.E0,0.E0));
#140=AXIS2_PLACEMENT_3D('',#137,#138,#139);
#141=PLANE('',#140);
#143=ORIENTED_EDGE('',*,*,#142,.T.);
#145=ORIENTED_EDGE('',*,*,#144,.T.);
#147=ORIENTED_EDGE('',*,*,#146,.T.);
#149=ORIENTED_EDGE('',*,*,#148,.F.);
#151=ORIENTED_EDGE('',*,*,#150,.T.);
#153=ORIENTED_EDGE('',*,*,#152,.F.);
#155=ORIENTED_EDGE('',*,*,#154,.T.);
#157=ORIENTED_EDGE('',*,*,#156,.F.);
#158=EDGE_LOOP('',(#143,#145,#147,#149,#151,#153,#155,#157));
#159=FACE_OUTER_BOUND('',#158,.F.);
#160=ADVANCED_FACE('',(#159),#141,.F.);
#161=CARTESIAN_POINT('',(-6.125E1,4.55E1,1.275E1));
#162=DIRECTION('',(0.E0,1.E0,0.E0));
#163=DIRECTION('',(0.E0,0.E0,1.E0));
#164=AXIS2_PLACEMENT_3D('',#161,#162,#163);
#165=CYLINDRICAL_SURFACE('',#164,1.E0);
#167=ORIENTED_EDGE('',*,*,#166,.F.);
#169=ORIENTED_EDGE('',*,*,#168,.F.);
#170=ORIENTED_EDGE('',*,*,#142,.F.);
#172=ORIENTED_EDGE('',*,*,#171,.F.);
#173=EDGE_LOOP('',(#167,#169,#170,#172));
#174=FACE_OUTER_BOUND('',#173,.F.);
#175=ADVANCED_FACE('',(#174),#165,.T.);
#176=CARTESIAN_POINT('',(0.E0,4.725E1,2.5E-1));
#177=DIRECTION('',(0.E0,1.E0,0.E0));
#178=DIRECTION('',(0.E0,0.E0,-1.E0));
#179=AXIS2_PLACEMENT_3D('',#176,#177,#178);
#180=PLANE('',#179);
#182=ORIENTED_EDGE('',*,*,#181,.T.);
#184=ORIENTED_EDGE('',*,*,#183,.T.);
#186=ORIENTED_EDGE('',*,*,#185,.T.);
#188=ORIENTED_EDGE('',*,*,#187,.T.);
#189=ORIENTED_EDGE('',*,*,#166,.T.);
#191=ORIENTED_EDGE('',*,*,#190,.F.);
#193=ORIENTED_EDGE('',*,*,#192,.T.);
#195=ORIENTED_EDGE('',*,*,#194,.F.);
#196=EDGE_LOOP('',(#182,#184,#186,#188,#189,#191,#193,#195));
#197=FACE_OUTER_BOUND('',#196,.F.);
#198=ADVANCED_FACE('',(#197),#180,.T.);
#199=CARTESIAN_POINT('',(6.125E1,4.55E1,-1.225E1));
#200=DIRECTION('',(0.E0,1.E0,0.E0));
#201=DIRECTION('',(0.E0,0.E0,1.E0));
#202=AXIS2_PLACEMENT_3D('',#199,#200,#201);
#203=CYLINDRICAL_SURFACE('',#202,1.E0);
#204=ORIENTED_EDGE('',*,*,#150,.F.);
#206=ORIENTED_EDGE('',*,*,#205,.F.);
#207=ORIENTED_EDGE('',*,*,#181,.F.);
#209=ORIENTED_EDGE('',*,*,#208,.F.);
#210=EDGE_LOOP('',(#204,#206,#207,#209));
#211=FACE_OUTER_BOUND('',#210,.F.);
#212=ADVANCED_FACE('',(#211),#203,.T.);
#213=CARTESIAN_POINT('',(6.225E1,4.6375E1,2.5E-1));
#214=DIRECTION('',(1.E0,0.E0,0.E0));
#215=DIRECTION('',(0.E0,0.E0,1.E0));
#216=AXIS2_PLACEMENT_3D('',#213,#214,#215);
#217=PLANE('',#216);
#218=ORIENTED_EDGE('',*,*,#205,.T.);
#219=ORIENTED_EDGE('',*,*,#148,.T.);
#221=ORIENTED_EDGE('',*,*,#220,.T.);
#222=ORIENTED_EDGE('',*,*,#183,.F.);
#223=EDGE_LOOP('',(#218,#219,#221,#222));
#224=FACE_OUTER_BOUND('',#223,.F.);
#225=ADVANCED_FACE('',(#224),#217,.T.);
#226=CARTESIAN_POINT('',(6.125E1,4.725E1,1.275E1));
#227=DIRECTION('',(0.E0,-1.E0,0.E0));
#228=DIRECTION('',(0.E0,0.E0,-1.E0));
#229=AXIS2_PLACEMENT_3D('',#226,#227,#228);
#230=CYLINDRICAL_SURFACE('',#229,1.E0);
#231=ORIENTED_EDGE('',*,*,#146,.F.);
#233=ORIENTED_EDGE('',*,*,#232,.F.);
#234=ORIENTED_EDGE('',*,*,#185,.F.);
#235=ORIENTED_EDGE('',*,*,#220,.F.);
#236=EDGE_LOOP('',(#231,#233,#234,#235));
#237=FACE_OUTER_BOUND('',#236,.F.);
#238=ADVANCED_FACE('',(#237),#230,.T.);
#239=CARTESIAN_POINT('',(0.E0,4.6375E1,1.375E1));
#240=DIRECTION('',(0.E0,0.E0,1.E0));
#241=DIRECTION('',(1.E0,0.E0,0.E0));
#242=AXIS2_PLACEMENT_3D('',#239,#240,#241);
#243=PLANE('',#242);
#244=ORIENTED_EDGE('',*,*,#187,.F.);
#245=ORIENTED_EDGE('',*,*,#232,.T.);
#246=ORIENTED_EDGE('',*,*,#144,.F.);
#247=ORIENTED_EDGE('',*,*,#168,.T.);
#248=EDGE_LOOP('',(#244,#245,#246,#247));
#249=FACE_OUTER_BOUND('',#248,.F.);
#250=ADVANCED_FACE('',(#249),#243,.T.);
#251=CARTESIAN_POINT('',(0.E0,4.6375E1,-1.325E1));
#252=DIRECTION('',(0.E0,0.E0,1.E0));
#253=DIRECTION('',(1.E0,0.E0,0.E0));
#254=AXIS2_PLACEMENT_3D('',#251,#252,#253);
#255=PLANE('',#254);
#256=ORIENTED_EDGE('',*,*,#208,.T.);
#257=ORIENTED_EDGE('',*,*,#194,.T.);
#259=ORIENTED_EDGE('',*,*,#258,.T.);
#260=ORIENTED_EDGE('',*,*,#152,.T.);
#261=EDGE_LOOP('',(#256,#257,#259,#260));
#262=FACE_OUTER_BOUND('',#261,.F.);
#263=ADVANCED_FACE('',(#262),#255,.F.);
#264=CARTESIAN_POINT('',(-6.125E1,4.725E1,-1.225E1));
#265=DIRECTION('',(0.E0,-1.E0,0.E0));
#266=DIRECTION('',(0.E0,0.E0,-1.E0));
#267=AXIS2_PLACEMENT_3D('',#264,#265,#266);
#268=CYLINDRICAL_SURFACE('',#267,1.E0);
#269=ORIENTED_EDGE('',*,*,#192,.F.);
#271=ORIENTED_EDGE('',*,*,#270,.F.);
#272=ORIENTED_EDGE('',*,*,#154,.F.);
#273=ORIENTED_EDGE('',*,*,#258,.F.);
#274=EDGE_LOOP('',(#269,#271,#272,#273));
#275=FACE_OUTER_BOUND('',#274,.F.);
#276=ADVANCED_FACE('',(#275),#268,.T.);
#277=CARTESIAN_POINT('',(-6.225E1,4.6375E1,2.5E-1));
#278=DIRECTION('',(1.E0,0.E0,0.E0));
#279=DIRECTION('',(0.E0,0.E0,-1.E0));
#280=AXIS2_PLACEMENT_3D('',#277,#278,#279);
#281=PLANE('',#280);
#282=ORIENTED_EDGE('',*,*,#171,.T.);
#283=ORIENTED_EDGE('',*,*,#156,.T.);
#284=ORIENTED_EDGE('',*,*,#270,.T.);
#285=ORIENTED_EDGE('',*,*,#190,.T.);
#286=EDGE_LOOP('',(#282,#283,#284,#285));
#287=FACE_OUTER_BOUND('',#286,.F.);
#288=ADVANCED_FACE('',(#287),#281,.F.);
#289=CLOSED_SHELL('',(#160,#175,#198,#212,#225,#238,#250,#263,#276,#288));
#290=MANIFOLD_SOLID_BREP('',#289);
#291=(LENGTH_UNIT()NAMED_UNIT(*)SI_UNIT(.MILLI.,.METRE.));
#292=DIMENSIONAL_EXPONENTS(0.E0,0.E0,0.E0,0.E0,0.E0,0.E0,0.E0);
#293=(NAMED_UNIT(*)PLANE_ANGLE_UNIT()SI_UNIT($,.RADIAN.));
#294=PLANE_ANGLE_MEASURE_WITH_UNIT(PLANE_ANGLE_MEASURE(1.745329251994E-2),#293);
#295=(CONVERSION_BASED_UNIT('DEGREE',#294)NAMED_UNIT(#292)PLANE_ANGLE_UNIT());
#296=(NAMED_UNIT(*)SI_UNIT($,.STERADIAN.)SOLID_ANGLE_UNIT());
#297=UNCERTAINTY_MEASURE_WITH_UNIT(LENGTH_MEASURE(1.274009966247E-2),#291,
'closure',
'Maximum model space distance between geometric entities at asserted connectivities');
#298=(GEOMETRIC_REPRESENTATION_CONTEXT(3)GLOBAL_UNCERTAINTY_ASSIGNED_CONTEXT((
#297))GLOBAL_UNIT_ASSIGNED_CONTEXT((#291,#295,#296))REPRESENTATION_CONTEXT
('ID1','3'));
#300=APPLICATION_CONTEXT(
'CONFIGURATION CONTROLLED 3D DESIGNS OF MECHANICAL PARTS AND ASSEMBLIES');
#301=APPLICATION_PROTOCOL_DEFINITION('international standard',
'config_control_design',1994,#300);
#302=DESIGN_CONTEXT('',#300,'design');
#303=MECHANICAL_CONTEXT('',#300,'mechanical');
#304=PRODUCT('2015S-PR','2015S-PR','NOT SPECIFIED',(#303));
#305=PRODUCT_DEFINITION_FORMATION_WITH_SPECIFIED_SOURCE('','LAST_VERSION',#304,
.MADE.);
#309=PRODUCT_CATEGORY('part','');
#310=PRODUCT_RELATED_PRODUCT_CATEGORY('detail','',(#304));
#311=PRODUCT_CATEGORY_RELATIONSHIP('','',#309,#310);
#312=SECURITY_CLASSIFICATION_LEVEL('unclassified');
#313=SECURITY_CLASSIFICATION('','',#312);
#314=CC_DESIGN_SECURITY_CLASSIFICATION(#313,(#305));
#315=APPROVAL_STATUS('approved');
#316=APPROVAL(#315,'');
#317=CC_DESIGN_APPROVAL(#316,(#313,#305,#306));
#318=CALENDAR_DATE(108,14,8);
#319=COORDINATED_UNIVERSAL_TIME_OFFSET(3,0,.AHEAD.);
#320=LOCAL_TIME(13,59,4.5E1,#319);
#321=DATE_AND_TIME(#318,#320);
#322=APPROVAL_DATE_TIME(#321,#316);
#323=DATE_TIME_ROLE('creation_date');
#324=CC_DESIGN_DATE_AND_TIME_ASSIGNMENT(#321,#323,(#306));
#325=DATE_TIME_ROLE('classification_date');
#326=CC_DESIGN_DATE_AND_TIME_ASSIGNMENT(#321,#325,(#313));
#327=PERSON('UNSPECIFIED','UNSPECIFIED',$,$,$,$);
#328=ORGANIZATION('UNSPECIFIED','UNSPECIFIED','UNSPECIFIED');
#329=PERSON_AND_ORGANIZATION(#327,#328);
#330=APPROVAL_ROLE('approver');
#331=APPROVAL_PERSON_ORGANIZATION(#329,#316,#330);
#332=PERSON_AND_ORGANIZATION_ROLE('creator');
#333=CC_DESIGN_PERSON_AND_ORGANIZATION_ASSIGNMENT(#329,#332,(#305,#306));
#334=PERSON_AND_ORGANIZATION_ROLE('design_supplier');
#335=CC_DESIGN_PERSON_AND_ORGANIZATION_ASSIGNMENT(#329,#334,(#305));
#336=PERSON_AND_ORGANIZATION_ROLE('classification_officer');
#337=CC_DESIGN_PERSON_AND_ORGANIZATION_ASSIGNMENT(#329,#336,(#313));
#338=PERSON_AND_ORGANIZATION_ROLE('design_owner');
#339=CC_DESIGN_PERSON_AND_ORGANIZATION_ASSIGNMENT(#329,#338,(#304));
#5=CIRCLE('',#4,1.E0);
#10=CIRCLE('',#9,1.E0);
#15=CIRCLE('',#14,1.E0);
#20=CIRCLE('',#19,1.E0);
#33=CIRCLE('',#32,1.E0);
#42=CIRCLE('',#41,1.E0);
#47=CIRCLE('',#46,1.E0);
#52=CIRCLE('',#51,1.E0);
#142=EDGE_CURVE('',#107,#135,#5,.T.);
#144=EDGE_CURVE('',#135,#132,#80,.T.);
#146=EDGE_CURVE('',#132,#116,#10,.T.);
#148=EDGE_CURVE('',#115,#116,#64,.T.);
#150=EDGE_CURVE('',#115,#112,#15,.T.);
#152=EDGE_CURVE('',#111,#112,#88,.T.);
#154=EDGE_CURVE('',#111,#108,#20,.T.);
#156=EDGE_CURVE('',#107,#108,#100,.T.);
#166=EDGE_CURVE('',#136,#128,#47,.T.);
#168=EDGE_CURVE('',#135,#136,#24,.T.);
#171=EDGE_CURVE('',#128,#107,#28,.T.);
#181=EDGE_CURVE('',#123,#119,#33,.T.);
#183=EDGE_CURVE('',#119,#120,#37,.T.);
#185=EDGE_CURVE('',#120,#131,#42,.T.);
#187=EDGE_CURVE('',#131,#136,#76,.T.);
#190=EDGE_CURVE('',#127,#128,#104,.T.);
#192=EDGE_CURVE('',#127,#124,#52,.T.);
#194=EDGE_CURVE('',#123,#124,#84,.T.);
#205=EDGE_CURVE('',#119,#115,#56,.T.);
#208=EDGE_CURVE('',#112,#123,#60,.T.);
#220=EDGE_CURVE('',#116,#120,#72,.T.);
#232=EDGE_CURVE('',#131,#132,#68,.T.);
#258=EDGE_CURVE('',#124,#111,#96,.T.);
#270=EDGE_CURVE('',#108,#127,#92,.T.);
#299=ADVANCED_BREP_SHAPE_REPRESENTATION('',(#290),#298);
#306=PRODUCT_DEFINITION('design','',#305,#302);
#307=PRODUCT_DEFINITION_SHAPE('','SHAPE FOR 2015S-PR.',#306);
#308=SHAPE_DEFINITION_REPRESENTATION(#307,#299);
ENDSEC;
END-ISO-10303-21;
