ISO-10303-21;
HEADER;
FILE_DESCRIPTION((''),'2;1');
FILE_NAME('2091_NARROW_PLATE_L_CCT','2009-02-03T',('oluf'),(''),
'PRO/ENGINEER BY PARAMETRIC TECHNOLOGY CORPORATION, 2001440',
'PRO/ENGINEER BY PARAMETRIC TECHNOLOGY CORPORATION, 2001440','');
FILE_SCHEMA(('CONFIG_CONTROL_DESIGN'));
ENDSEC;
DATA;
#1=DIRECTION('',(0.E0,0.E0,1.E0));
#2=VECTOR('',#1,9.025000001900E1);
#3=CARTESIAN_POINT('',(-1.21125E2,-8.465E1,-4.512500000950E1));
#4=LINE('',#3,#2);
#5=CARTESIAN_POINT('',(-1.19125E2,-8.465E1,-4.5125E1));
#6=DIRECTION('',(0.E0,1.E0,0.E0));
#7=DIRECTION('',(5.750010245720E-9,0.E0,-1.E0));
#8=AXIS2_PLACEMENT_3D('',#5,#6,#7);
#10=DIRECTION('',(-1.E0,0.E0,0.E0));
#11=VECTOR('',#10,2.382499999847E2);
#12=CARTESIAN_POINT('',(1.191249999923E2,-8.465E1,-4.7125E1));
#13=LINE('',#12,#11);
#14=CARTESIAN_POINT('',(1.19125E2,-8.465E1,-4.5125E1));
#15=DIRECTION('',(0.E0,1.E0,0.E0));
#16=DIRECTION('',(1.E0,0.E0,-7.124999257258E-9));
#17=AXIS2_PLACEMENT_3D('',#14,#15,#16);
#19=DIRECTION('',(0.E0,0.E0,-1.E0));
#20=VECTOR('',#19,9.025000001900E1);
#21=CARTESIAN_POINT('',(1.21125E2,-8.465E1,4.512500000950E1));
#22=LINE('',#21,#20);
#23=CARTESIAN_POINT('',(1.19125E2,-8.465E1,4.5125E1));
#24=DIRECTION('',(0.E0,1.E0,0.E0));
#25=DIRECTION('',(-5.750003140292E-9,0.E0,1.E0));
#26=AXIS2_PLACEMENT_3D('',#23,#24,#25);
#28=DIRECTION('',(1.E0,0.E0,0.E0));
#29=VECTOR('',#28,2.382499999847E2);
#30=CARTESIAN_POINT('',(-1.191249999923E2,-8.465E1,4.7125E1));
#31=LINE('',#30,#29);
#32=CARTESIAN_POINT('',(-1.19125E2,-8.465E1,4.5125E1));
#33=DIRECTION('',(0.E0,1.E0,0.E0));
#34=DIRECTION('',(-1.E0,0.E0,7.125002809971E-9));
#35=AXIS2_PLACEMENT_3D('',#32,#33,#34);
#37=DIRECTION('',(-1.E0,0.E0,0.E0));
#38=VECTOR('',#37,2.335000000068E2);
#39=CARTESIAN_POINT('',(1.166250000635E2,-8.465E1,4.382499997483E1));
#40=LINE('',#39,#38);
#41=DIRECTION('',(0.E0,0.E0,1.E0));
#42=VECTOR('',#41,8.764999994967E1);
#43=CARTESIAN_POINT('',(1.166250000635E2,-8.465E1,-4.382499997483E1));
#44=LINE('',#43,#42);
#45=DIRECTION('',(1.E0,0.E0,0.E0));
#46=VECTOR('',#45,2.335000000068E2);
#47=CARTESIAN_POINT('',(-1.168749999433E2,-8.465E1,-4.382499997483E1));
#48=LINE('',#47,#46);
#49=DIRECTION('',(0.E0,0.E0,-1.E0));
#50=VECTOR('',#49,8.764999994967E1);
#51=CARTESIAN_POINT('',(-1.168749999433E2,-8.465E1,4.382499997483E1));
#52=LINE('',#51,#50);
#53=DIRECTION('',(0.E0,0.E0,1.E0));
#54=VECTOR('',#53,9.025000000950E1);
#55=CARTESIAN_POINT('',(-1.21125E2,-8.615E1,-4.512500000475E1));
#56=LINE('',#55,#54);
#57=DIRECTION('',(0.E0,-1.E0,3.166666336559E-9));
#58=VECTOR('',#57,1.5E0);
#59=CARTESIAN_POINT('',(-1.21125E2,-8.465E1,-4.512500000950E1));
#60=LINE('',#59,#58);
#61=DIRECTION('',(0.E0,1.E0,3.166661599607E-9));
#62=VECTOR('',#61,1.5E0);
#63=CARTESIAN_POINT('',(-1.21125E2,-8.615E1,4.512500000475E1));
#64=LINE('',#63,#62);
#65=CARTESIAN_POINT('',(1.19125E2,-8.615E1,4.5125E1));
#66=DIRECTION('',(0.E0,1.E0,0.E0));
#67=DIRECTION('',(-5.750003140292E-9,0.E0,1.E0));
#68=AXIS2_PLACEMENT_3D('',#65,#66,#67);
#70=CARTESIAN_POINT('',(1.19125E2,-8.615E1,-4.5125E1));
#71=DIRECTION('',(0.E0,1.E0,0.E0));
#72=DIRECTION('',(1.E0,0.E0,-7.124999257258E-9));
#73=AXIS2_PLACEMENT_3D('',#70,#71,#72);
#75=CARTESIAN_POINT('',(-1.19125E2,-8.615E1,-4.5125E1));
#76=DIRECTION('',(0.E0,1.E0,0.E0));
#77=DIRECTION('',(5.750010245720E-9,0.E0,-1.E0));
#78=AXIS2_PLACEMENT_3D('',#75,#76,#77);
#80=CARTESIAN_POINT('',(-1.19125E2,-8.615E1,4.5125E1));
#81=DIRECTION('',(0.E0,1.E0,0.E0));
#82=DIRECTION('',(-1.E0,0.E0,7.125002809971E-9));
#83=AXIS2_PLACEMENT_3D('',#80,#81,#82);
#85=DIRECTION('',(-2.555556951241E-9,1.E0,0.E0));
#86=VECTOR('',#85,1.5E0);
#87=CARTESIAN_POINT('',(1.191249999962E2,-8.615E1,4.7125E1));
#88=LINE('',#87,#86);
#89=DIRECTION('',(1.E0,0.E0,0.E0));
#90=VECTOR('',#89,2.382499999923E2);
#91=CARTESIAN_POINT('',(-1.191249999962E2,-8.615E1,4.7125E1));
#92=LINE('',#91,#90);
#93=DIRECTION('',(-2.555566425144E-9,-1.E0,0.E0));
#94=VECTOR('',#93,1.5E0);
#95=CARTESIAN_POINT('',(-1.191249999923E2,-8.465E1,4.7125E1));
#96=LINE('',#95,#94);
#97=DIRECTION('',(0.E0,0.E0,-1.E0));
#98=VECTOR('',#97,9.025000000950E1);
#99=CARTESIAN_POINT('',(1.21125E2,-8.615E1,4.512500000475E1));
#100=LINE('',#99,#98);
#101=DIRECTION('',(0.E0,-1.E0,-3.166661599607E-9));
#102=VECTOR('',#101,1.5E0);
#103=CARTESIAN_POINT('',(1.21125E2,-8.465E1,4.512500000950E1));
#104=LINE('',#103,#102);
#105=DIRECTION('',(0.E0,1.E0,-3.166666336559E-9));
#106=VECTOR('',#105,1.5E0);
#107=CARTESIAN_POINT('',(1.21125E2,-8.615E1,-4.512500000475E1));
#108=LINE('',#107,#106);
#109=DIRECTION('',(-1.E0,0.E0,0.E0));
#110=VECTOR('',#109,2.382499999923E2);
#111=CARTESIAN_POINT('',(1.191249999962E2,-8.615E1,-4.7125E1));
#112=LINE('',#111,#110);
#113=DIRECTION('',(2.555556951241E-9,-1.E0,0.E0));
#114=VECTOR('',#113,1.5E0);
#115=CARTESIAN_POINT('',(1.191249999923E2,-8.465E1,-4.7125E1));
#116=LINE('',#115,#114);
#117=DIRECTION('',(2.555566425144E-9,1.E0,0.E0));
#118=VECTOR('',#117,1.5E0);
#119=CARTESIAN_POINT('',(-1.191249999962E2,-8.615E1,-4.7125E1));
#120=LINE('',#119,#118);
#121=DIRECTION('',(1.E0,0.E0,0.E0));
#122=VECTOR('',#121,2.335E2);
#123=CARTESIAN_POINT('',(-1.16875E2,-8.385E1,4.3825E1));
#124=LINE('',#123,#122);
#125=DIRECTION('',(7.937501322885E-8,-1.E0,-3.145832927487E-8));
#126=VECTOR('',#125,8.E-1);
#127=CARTESIAN_POINT('',(1.16625E2,-8.385E1,4.3825E1));
#128=LINE('',#127,#126);
#129=DIRECTION('',(-7.083334807589E-8,1.E0,-3.145832927487E-8));
#130=VECTOR('',#129,8.E-1);
#131=CARTESIAN_POINT('',(-1.168749999433E2,-8.465E1,-4.382499997483E1));
#132=LINE('',#131,#130);
#133=DIRECTION('',(0.E0,0.E0,1.E0));
#134=VECTOR('',#133,8.765E1);
#135=CARTESIAN_POINT('',(-1.16875E2,-8.385E1,-4.3825E1));
#136=LINE('',#135,#134);
#137=DIRECTION('',(7.083333031232E-8,-1.E0,-3.145832927487E-8));
#138=VECTOR('',#137,8.E-1);
#139=CARTESIAN_POINT('',(-1.16875E2,-8.385E1,4.3825E1));
#140=LINE('',#139,#138);
#141=DIRECTION('',(-1.E0,0.E0,0.E0));
#142=VECTOR('',#141,2.335E2);
#143=CARTESIAN_POINT('',(1.16625E2,-8.385E1,-4.3825E1));
#144=LINE('',#143,#142);
#145=DIRECTION('',(0.E0,0.E0,-1.E0));
#146=VECTOR('',#145,8.765E1);
#147=CARTESIAN_POINT('',(1.16625E2,-8.385E1,4.3825E1));
#148=LINE('',#147,#146);
#149=DIRECTION('',(7.937497770172E-8,-1.E0,3.145832927487E-8));
#150=VECTOR('',#149,8.E-1);
#151=CARTESIAN_POINT('',(1.16625E2,-8.385E1,-4.3825E1));
#152=LINE('',#151,#150);
#153=CARTESIAN_POINT('',(-1.21125E2,-8.465E1,-4.512500000950E1));
#154=CARTESIAN_POINT('',(-1.21125E2,-8.465E1,4.512500000950E1));
#155=VERTEX_POINT('',#153);
#156=VERTEX_POINT('',#154);
#157=CARTESIAN_POINT('',(-1.191249999885E2,-8.465E1,-4.7125E1));
#158=VERTEX_POINT('',#157);
#159=CARTESIAN_POINT('',(1.191249999923E2,-8.465E1,-4.7125E1));
#160=VERTEX_POINT('',#159);
#161=CARTESIAN_POINT('',(1.21125E2,-8.465E1,-4.512500001425E1));
#162=VERTEX_POINT('',#161);
#163=CARTESIAN_POINT('',(1.21125E2,-8.465E1,4.512500000950E1));
#164=VERTEX_POINT('',#163);
#165=CARTESIAN_POINT('',(1.191249999885E2,-8.465E1,4.7125E1));
#166=VERTEX_POINT('',#165);
#167=CARTESIAN_POINT('',(-1.191249999923E2,-8.465E1,4.7125E1));
#168=VERTEX_POINT('',#167);
#169=CARTESIAN_POINT('',(1.21125E2,-8.615E1,4.512500000475E1));
#170=VERTEX_POINT('',#169);
#171=CARTESIAN_POINT('',(1.21125E2,-8.615E1,-4.512500000475E1));
#172=VERTEX_POINT('',#171);
#173=CARTESIAN_POINT('',(1.191249999962E2,-8.615E1,4.7125E1));
#174=VERTEX_POINT('',#173);
#175=CARTESIAN_POINT('',(-1.191249999962E2,-8.615E1,4.7125E1));
#176=VERTEX_POINT('',#175);
#177=CARTESIAN_POINT('',(-1.21125E2,-8.615E1,-4.512500000475E1));
#178=VERTEX_POINT('',#177);
#179=CARTESIAN_POINT('',(-1.21125E2,-8.615E1,4.512500000475E1));
#180=VERTEX_POINT('',#179);
#181=CARTESIAN_POINT('',(1.191249999962E2,-8.615E1,-4.7125E1));
#182=VERTEX_POINT('',#181);
#183=CARTESIAN_POINT('',(-1.191249999962E2,-8.615E1,-4.7125E1));
#184=VERTEX_POINT('',#183);
#185=CARTESIAN_POINT('',(-1.168749999433E2,-8.465E1,-4.382499997483E1));
#186=CARTESIAN_POINT('',(-1.16875E2,-8.385E1,-4.3825E1));
#187=VERTEX_POINT('',#185);
#188=VERTEX_POINT('',#186);
#189=CARTESIAN_POINT('',(-1.16875E2,-8.385E1,4.3825E1));
#190=CARTESIAN_POINT('',(-1.168749999433E2,-8.465E1,4.382499997483E1));
#191=VERTEX_POINT('',#189);
#192=VERTEX_POINT('',#190);
#193=CARTESIAN_POINT('',(1.16625E2,-8.385E1,4.3825E1));
#194=CARTESIAN_POINT('',(1.166250000635E2,-8.465E1,4.382499997483E1));
#195=VERTEX_POINT('',#193);
#196=VERTEX_POINT('',#194);
#197=CARTESIAN_POINT('',(1.16625E2,-8.385E1,-4.3825E1));
#198=CARTESIAN_POINT('',(1.166250000635E2,-8.465E1,-4.382499997483E1));
#199=VERTEX_POINT('',#197);
#200=VERTEX_POINT('',#198);
#201=CARTESIAN_POINT('',(0.E0,-8.465E1,0.E0));
#202=DIRECTION('',(0.E0,1.E0,0.E0));
#203=DIRECTION('',(0.E0,0.E0,1.E0));
#204=AXIS2_PLACEMENT_3D('',#201,#202,#203);
#205=PLANE('',#204);
#207=ORIENTED_EDGE('',*,*,#206,.F.);
#209=ORIENTED_EDGE('',*,*,#208,.F.);
#211=ORIENTED_EDGE('',*,*,#210,.F.);
#213=ORIENTED_EDGE('',*,*,#212,.F.);
#215=ORIENTED_EDGE('',*,*,#214,.F.);
#217=ORIENTED_EDGE('',*,*,#216,.F.);
#219=ORIENTED_EDGE('',*,*,#218,.F.);
#221=ORIENTED_EDGE('',*,*,#220,.F.);
#222=EDGE_LOOP('',(#207,#209,#211,#213,#215,#217,#219,#221));
#223=FACE_OUTER_BOUND('',#222,.F.);
#225=ORIENTED_EDGE('',*,*,#224,.F.);
#227=ORIENTED_EDGE('',*,*,#226,.F.);
#229=ORIENTED_EDGE('',*,*,#228,.F.);
#231=ORIENTED_EDGE('',*,*,#230,.F.);
#232=EDGE_LOOP('',(#225,#227,#229,#231));
#233=FACE_BOUND('',#232,.F.);
#234=ADVANCED_FACE('',(#223,#233),#205,.T.);
#235=CARTESIAN_POINT('',(-1.21125E2,-8.54E1,0.E0));
#236=DIRECTION('',(1.E0,0.E0,0.E0));
#237=DIRECTION('',(0.E0,0.E0,1.E0));
#238=AXIS2_PLACEMENT_3D('',#235,#236,#237);
#239=PLANE('',#238);
#241=ORIENTED_EDGE('',*,*,#240,.F.);
#243=ORIENTED_EDGE('',*,*,#242,.F.);
#244=ORIENTED_EDGE('',*,*,#206,.T.);
#246=ORIENTED_EDGE('',*,*,#245,.F.);
#247=EDGE_LOOP('',(#241,#243,#244,#246));
#248=FACE_OUTER_BOUND('',#247,.F.);
#249=ADVANCED_FACE('',(#248),#239,.F.);
#250=CARTESIAN_POINT('',(0.E0,-8.615E1,0.E0));
#251=DIRECTION('',(0.E0,1.E0,0.E0));
#252=DIRECTION('',(0.E0,0.E0,1.E0));
#253=AXIS2_PLACEMENT_3D('',#250,#251,#252);
#254=PLANE('',#253);
#256=ORIENTED_EDGE('',*,*,#255,.T.);
#258=ORIENTED_EDGE('',*,*,#257,.T.);
#260=ORIENTED_EDGE('',*,*,#259,.T.);
#262=ORIENTED_EDGE('',*,*,#261,.T.);
#264=ORIENTED_EDGE('',*,*,#263,.T.);
#265=ORIENTED_EDGE('',*,*,#240,.T.);
#267=ORIENTED_EDGE('',*,*,#266,.T.);
#269=ORIENTED_EDGE('',*,*,#268,.T.);
#270=EDGE_LOOP('',(#256,#258,#260,#262,#264,#265,#267,#269));
#271=FACE_OUTER_BOUND('',#270,.F.);
#272=ADVANCED_FACE('',(#271),#254,.F.);
#273=CARTESIAN_POINT('',(1.19125E2,-8.615E1,4.5125E1));
#274=DIRECTION('',(0.E0,1.E0,0.E0));
#275=DIRECTION('',(0.E0,0.E0,1.E0));
#276=AXIS2_PLACEMENT_3D('',#273,#274,#275);
#277=CYLINDRICAL_SURFACE('',#276,2.E0);
#278=ORIENTED_EDGE('',*,*,#255,.F.);
#280=ORIENTED_EDGE('',*,*,#279,.T.);
#281=ORIENTED_EDGE('',*,*,#216,.T.);
#283=ORIENTED_EDGE('',*,*,#282,.T.);
#284=EDGE_LOOP('',(#278,#280,#281,#283));
#285=FACE_OUTER_BOUND('',#284,.F.);
#286=ADVANCED_FACE('',(#285),#277,.T.);
#287=CARTESIAN_POINT('',(0.E0,-8.54E1,4.7125E1));
#288=DIRECTION('',(0.E0,0.E0,1.E0));
#289=DIRECTION('',(1.E0,0.E0,0.E0));
#290=AXIS2_PLACEMENT_3D('',#287,#288,#289);
#291=PLANE('',#290);
#292=ORIENTED_EDGE('',*,*,#218,.T.);
#293=ORIENTED_EDGE('',*,*,#279,.F.);
#294=ORIENTED_EDGE('',*,*,#268,.F.);
#296=ORIENTED_EDGE('',*,*,#295,.F.);
#297=EDGE_LOOP('',(#292,#293,#294,#296));
#298=FACE_OUTER_BOUND('',#297,.F.);
#299=ADVANCED_FACE('',(#298),#291,.T.);
#300=CARTESIAN_POINT('',(-1.19125E2,-8.615E1,4.5125E1));
#301=DIRECTION('',(0.E0,1.E0,0.E0));
#302=DIRECTION('',(0.E0,0.E0,1.E0));
#303=AXIS2_PLACEMENT_3D('',#300,#301,#302);
#304=CYLINDRICAL_SURFACE('',#303,2.E0);
#305=ORIENTED_EDGE('',*,*,#266,.F.);
#306=ORIENTED_EDGE('',*,*,#245,.T.);
#307=ORIENTED_EDGE('',*,*,#220,.T.);
#308=ORIENTED_EDGE('',*,*,#295,.T.);
#309=EDGE_LOOP('',(#305,#306,#307,#308));
#310=FACE_OUTER_BOUND('',#309,.F.);
#311=ADVANCED_FACE('',(#310),#304,.T.);
#312=CARTESIAN_POINT('',(1.21125E2,-8.54E1,0.E0));
#313=DIRECTION('',(1.E0,0.E0,0.E0));
#314=DIRECTION('',(0.E0,0.E0,-1.E0));
#315=AXIS2_PLACEMENT_3D('',#312,#313,#314);
#316=PLANE('',#315);
#317=ORIENTED_EDGE('',*,*,#257,.F.);
#318=ORIENTED_EDGE('',*,*,#282,.F.);
#319=ORIENTED_EDGE('',*,*,#214,.T.);
#321=ORIENTED_EDGE('',*,*,#320,.F.);
#322=EDGE_LOOP('',(#317,#318,#319,#321));
#323=FACE_OUTER_BOUND('',#322,.F.);
#324=ADVANCED_FACE('',(#323),#316,.T.);
#325=CARTESIAN_POINT('',(1.19125E2,-8.615E1,-4.5125E1));
#326=DIRECTION('',(0.E0,1.E0,0.E0));
#327=DIRECTION('',(0.E0,0.E0,1.E0));
#328=AXIS2_PLACEMENT_3D('',#325,#326,#327);
#329=CYLINDRICAL_SURFACE('',#328,2.E0);
#330=ORIENTED_EDGE('',*,*,#259,.F.);
#331=ORIENTED_EDGE('',*,*,#320,.T.);
#332=ORIENTED_EDGE('',*,*,#212,.T.);
#334=ORIENTED_EDGE('',*,*,#333,.T.);
#335=EDGE_LOOP('',(#330,#331,#332,#334));
#336=FACE_OUTER_BOUND('',#335,.F.);
#337=ADVANCED_FACE('',(#336),#329,.T.);
#338=CARTESIAN_POINT('',(0.E0,-8.54E1,-4.7125E1));
#339=DIRECTION('',(0.E0,0.E0,1.E0));
#340=DIRECTION('',(-1.E0,0.E0,0.E0));
#341=AXIS2_PLACEMENT_3D('',#338,#339,#340);
#342=PLANE('',#341);
#343=ORIENTED_EDGE('',*,*,#261,.F.);
#344=ORIENTED_EDGE('',*,*,#333,.F.);
#345=ORIENTED_EDGE('',*,*,#210,.T.);
#347=ORIENTED_EDGE('',*,*,#346,.F.);
#348=EDGE_LOOP('',(#343,#344,#345,#347));
#349=FACE_OUTER_BOUND('',#348,.F.);
#350=ADVANCED_FACE('',(#349),#342,.F.);
#351=CARTESIAN_POINT('',(-1.19125E2,-8.615E1,-4.5125E1));
#352=DIRECTION('',(0.E0,1.E0,0.E0));
#353=DIRECTION('',(0.E0,0.E0,1.E0));
#354=AXIS2_PLACEMENT_3D('',#351,#352,#353);
#355=CYLINDRICAL_SURFACE('',#354,2.E0);
#356=ORIENTED_EDGE('',*,*,#263,.F.);
#357=ORIENTED_EDGE('',*,*,#346,.T.);
#358=ORIENTED_EDGE('',*,*,#208,.T.);
#359=ORIENTED_EDGE('',*,*,#242,.T.);
#360=EDGE_LOOP('',(#356,#357,#358,#359));
#361=FACE_OUTER_BOUND('',#360,.F.);
#362=ADVANCED_FACE('',(#361),#355,.T.);
#363=CARTESIAN_POINT('',(-1.25E-1,-8.425E1,4.3825E1));
#364=DIRECTION('',(0.E0,0.E0,1.E0));
#365=DIRECTION('',(-1.E0,0.E0,0.E0));
#366=AXIS2_PLACEMENT_3D('',#363,#364,#365);
#367=PLANE('',#366);
#369=ORIENTED_EDGE('',*,*,#368,.F.);
#371=ORIENTED_EDGE('',*,*,#370,.T.);
#373=ORIENTED_EDGE('',*,*,#372,.T.);
#374=ORIENTED_EDGE('',*,*,#224,.T.);
#375=EDGE_LOOP('',(#369,#371,#373,#374));
#376=FACE_OUTER_BOUND('',#375,.F.);
#377=ADVANCED_FACE('',(#376),#367,.T.);
#378=CARTESIAN_POINT('',(-1.16875E2,-8.425E1,0.E0));
#379=DIRECTION('',(1.E0,0.E0,0.E0));
#380=DIRECTION('',(0.E0,0.E0,-1.E0));
#381=AXIS2_PLACEMENT_3D('',#378,#379,#380);
#382=PLANE('',#381);
#384=ORIENTED_EDGE('',*,*,#383,.T.);
#386=ORIENTED_EDGE('',*,*,#385,.T.);
#387=ORIENTED_EDGE('',*,*,#368,.T.);
#388=ORIENTED_EDGE('',*,*,#230,.T.);
#389=EDGE_LOOP('',(#384,#386,#387,#388));
#390=FACE_OUTER_BOUND('',#389,.F.);
#391=ADVANCED_FACE('',(#390),#382,.F.);
#392=CARTESIAN_POINT('',(-1.25E-1,-8.425E1,-4.3825E1));
#393=DIRECTION('',(0.E0,0.E0,1.E0));
#394=DIRECTION('',(1.E0,0.E0,0.E0));
#395=AXIS2_PLACEMENT_3D('',#392,#393,#394);
#396=PLANE('',#395);
#398=ORIENTED_EDGE('',*,*,#397,.F.);
#400=ORIENTED_EDGE('',*,*,#399,.T.);
#401=ORIENTED_EDGE('',*,*,#383,.F.);
#402=ORIENTED_EDGE('',*,*,#228,.T.);
#403=EDGE_LOOP('',(#398,#400,#401,#402));
#404=FACE_OUTER_BOUND('',#403,.F.);
#405=ADVANCED_FACE('',(#404),#396,.F.);
#406=CARTESIAN_POINT('',(1.16625E2,-8.425E1,0.E0));
#407=DIRECTION('',(1.E0,0.E0,0.E0));
#408=DIRECTION('',(0.E0,0.E0,1.E0));
#409=AXIS2_PLACEMENT_3D('',#406,#407,#408);
#410=PLANE('',#409);
#411=ORIENTED_EDGE('',*,*,#372,.F.);
#413=ORIENTED_EDGE('',*,*,#412,.T.);
#414=ORIENTED_EDGE('',*,*,#397,.T.);
#415=ORIENTED_EDGE('',*,*,#226,.T.);
#416=EDGE_LOOP('',(#411,#413,#414,#415));
#417=FACE_OUTER_BOUND('',#416,.F.);
#418=ADVANCED_FACE('',(#417),#410,.T.);
#419=CARTESIAN_POINT('',(-1.25E-1,-8.385E1,0.E0));
#420=DIRECTION('',(0.E0,1.E0,0.E0));
#421=DIRECTION('',(0.E0,0.E0,-1.E0));
#422=AXIS2_PLACEMENT_3D('',#419,#420,#421);
#423=PLANE('',#422);
#424=ORIENTED_EDGE('',*,*,#399,.F.);
#425=ORIENTED_EDGE('',*,*,#412,.F.);
#426=ORIENTED_EDGE('',*,*,#370,.F.);
#427=ORIENTED_EDGE('',*,*,#385,.F.);
#428=EDGE_LOOP('',(#424,#425,#426,#427));
#429=FACE_OUTER_BOUND('',#428,.F.);
#430=ADVANCED_FACE('',(#429),#423,.T.);
#431=CLOSED_SHELL('',(#234,#249,#272,#286,#299,#311,#324,#337,#350,#362,#377,
#391,#405,#418,#430));
#432=MANIFOLD_SOLID_BREP('',#431);
#433=(LENGTH_UNIT()NAMED_UNIT(*)SI_UNIT(.MILLI.,.METRE.));
#434=DIMENSIONAL_EXPONENTS(0.E0,0.E0,0.E0,0.E0,0.E0,0.E0,0.E0);
#435=(NAMED_UNIT(*)PLANE_ANGLE_UNIT()SI_UNIT($,.RADIAN.));
#436=PLANE_ANGLE_MEASURE_WITH_UNIT(PLANE_ANGLE_MEASURE(1.745329251994E-2),#435);
#437=(CONVERSION_BASED_UNIT('DEGREE',#436)NAMED_UNIT(#434)PLANE_ANGLE_UNIT());
#438=(NAMED_UNIT(*)SI_UNIT($,.STERADIAN.)SOLID_ANGLE_UNIT());
#439=UNCERTAINTY_MEASURE_WITH_UNIT(LENGTH_MEASURE(2.599384720177E-2),#433,
'closure',
'Maximum model space distance between geometric entities at asserted connectivities');
#440=(GEOMETRIC_REPRESENTATION_CONTEXT(3)GLOBAL_UNCERTAINTY_ASSIGNED_CONTEXT((
#439))GLOBAL_UNIT_ASSIGNED_CONTEXT((#433,#437,#438))REPRESENTATION_CONTEXT
('ID1','3'));
#442=APPLICATION_CONTEXT(
'CONFIGURATION CONTROLLED 3D DESIGNS OF MECHANICAL PARTS AND ASSEMBLIES');
#443=APPLICATION_PROTOCOL_DEFINITION('international standard',
'config_control_design',1994,#442);
#444=DESIGN_CONTEXT('',#442,'design');
#445=MECHANICAL_CONTEXT('',#442,'mechanical');
#446=PRODUCT('2091_NARROW_PLATE_L_CCT','2091_NARROW_PLATE_L_CCT',
'NOT SPECIFIED',(#445));
#447=PRODUCT_DEFINITION_FORMATION_WITH_SPECIFIED_SOURCE('1','LAST_VERSION',#446,
.MADE.);
#451=PRODUCT_CATEGORY('part','');
#452=PRODUCT_RELATED_PRODUCT_CATEGORY('detail','',(#446));
#453=PRODUCT_CATEGORY_RELATIONSHIP('','',#451,#452);
#454=SECURITY_CLASSIFICATION_LEVEL('unclassified');
#455=SECURITY_CLASSIFICATION('','',#454);
#456=CC_DESIGN_SECURITY_CLASSIFICATION(#455,(#447));
#457=APPROVAL_STATUS('approved');
#458=APPROVAL(#457,'');
#459=CC_DESIGN_APPROVAL(#458,(#455,#447,#448));
#460=CALENDAR_DATE(109,3,2);
#461=COORDINATED_UNIVERSAL_TIME_OFFSET(1,0,.AHEAD.);
#462=LOCAL_TIME(17,39,2.1E1,#461);
#463=DATE_AND_TIME(#460,#462);
#464=APPROVAL_DATE_TIME(#463,#458);
#465=DATE_TIME_ROLE('creation_date');
#466=CC_DESIGN_DATE_AND_TIME_ASSIGNMENT(#463,#465,(#448));
#467=DATE_TIME_ROLE('classification_date');
#468=CC_DESIGN_DATE_AND_TIME_ASSIGNMENT(#463,#467,(#455));
#469=PERSON('UNSPECIFIED','UNSPECIFIED',$,$,$,$);
#470=ORGANIZATION('UNSPECIFIED','UNSPECIFIED','UNSPECIFIED');
#471=PERSON_AND_ORGANIZATION(#469,#470);
#472=APPROVAL_ROLE('approver');
#473=APPROVAL_PERSON_ORGANIZATION(#471,#458,#472);
#474=PERSON_AND_ORGANIZATION_ROLE('creator');
#475=CC_DESIGN_PERSON_AND_ORGANIZATION_ASSIGNMENT(#471,#474,(#447,#448));
#476=PERSON_AND_ORGANIZATION_ROLE('design_supplier');
#477=CC_DESIGN_PERSON_AND_ORGANIZATION_ASSIGNMENT(#471,#476,(#447));
#478=PERSON_AND_ORGANIZATION_ROLE('classification_officer');
#479=CC_DESIGN_PERSON_AND_ORGANIZATION_ASSIGNMENT(#471,#478,(#455));
#480=PERSON_AND_ORGANIZATION_ROLE('design_owner');
#481=CC_DESIGN_PERSON_AND_ORGANIZATION_ASSIGNMENT(#471,#480,(#446));
#9=CIRCLE('',#8,2.E0);
#18=CIRCLE('',#17,2.E0);
#27=CIRCLE('',#26,2.E0);
#36=CIRCLE('',#35,2.E0);
#69=CIRCLE('',#68,2.E0);
#74=CIRCLE('',#73,2.E0);
#79=CIRCLE('',#78,2.E0);
#84=CIRCLE('',#83,2.E0);
#206=EDGE_CURVE('',#155,#156,#4,.T.);
#208=EDGE_CURVE('',#158,#155,#9,.T.);
#210=EDGE_CURVE('',#160,#158,#13,.T.);
#212=EDGE_CURVE('',#162,#160,#18,.T.);
#214=EDGE_CURVE('',#164,#162,#22,.T.);
#216=EDGE_CURVE('',#166,#164,#27,.T.);
#218=EDGE_CURVE('',#168,#166,#31,.T.);
#220=EDGE_CURVE('',#156,#168,#36,.T.);
#224=EDGE_CURVE('',#196,#192,#40,.T.);
#226=EDGE_CURVE('',#200,#196,#44,.T.);
#228=EDGE_CURVE('',#187,#200,#48,.T.);
#230=EDGE_CURVE('',#192,#187,#52,.T.);
#240=EDGE_CURVE('',#178,#180,#56,.T.);
#242=EDGE_CURVE('',#155,#178,#60,.T.);
#245=EDGE_CURVE('',#180,#156,#64,.T.);
#255=EDGE_CURVE('',#174,#170,#69,.T.);
#257=EDGE_CURVE('',#170,#172,#100,.T.);
#259=EDGE_CURVE('',#172,#182,#74,.T.);
#261=EDGE_CURVE('',#182,#184,#112,.T.);
#263=EDGE_CURVE('',#184,#178,#79,.T.);
#266=EDGE_CURVE('',#180,#176,#84,.T.);
#268=EDGE_CURVE('',#176,#174,#92,.T.);
#279=EDGE_CURVE('',#174,#166,#88,.T.);
#282=EDGE_CURVE('',#164,#170,#104,.T.);
#295=EDGE_CURVE('',#168,#176,#96,.T.);
#320=EDGE_CURVE('',#172,#162,#108,.T.);
#333=EDGE_CURVE('',#160,#182,#116,.T.);
#346=EDGE_CURVE('',#184,#158,#120,.T.);
#368=EDGE_CURVE('',#191,#192,#140,.T.);
#370=EDGE_CURVE('',#191,#195,#124,.T.);
#372=EDGE_CURVE('',#195,#196,#128,.T.);
#383=EDGE_CURVE('',#187,#188,#132,.T.);
#385=EDGE_CURVE('',#188,#191,#136,.T.);
#397=EDGE_CURVE('',#199,#200,#152,.T.);
#399=EDGE_CURVE('',#199,#188,#144,.T.);
#412=EDGE_CURVE('',#195,#199,#148,.T.);
#441=ADVANCED_BREP_SHAPE_REPRESENTATION('',(#432),#440);
#448=PRODUCT_DEFINITION('design','',#447,#444);
#449=PRODUCT_DEFINITION_SHAPE('','SHAPE FOR 2091_NARROW_PLATE_L_CCT.',#448);
#450=SHAPE_DEFINITION_REPRESENTATION(#449,#441);
ENDSEC;
END-ISO-10303-21;
