ISO-10303-21;
HEADER;
FILE_DESCRIPTION((''),'2;1');
FILE_NAME('2091_WIDE_PLATE_M_CCT','2009-02-03T',('oluf'),(''),
'PRO/ENGINEER BY PARAMETRIC TECHNOLOGY CORPORATION, 2001440',
'PRO/ENGINEER BY PARAMETRIC TECHNOLOGY CORPORATION, 2001440','');
FILE_SCHEMA(('CONFIG_CONTROL_DESIGN'));
ENDSEC;
DATA;
#1=CARTESIAN_POINT('',(1.19125E2,8.465E1,4.5125E1));
#2=DIRECTION('',(0.E0,1.E0,0.E0));
#3=DIRECTION('',(-5.750003140292E-9,0.E0,1.E0));
#4=AXIS2_PLACEMENT_3D('',#1,#2,#3);
#6=DIRECTION('',(0.E0,0.E0,-1.E0));
#7=VECTOR('',#6,6.624999998967E1);
#8=CARTESIAN_POINT('',(1.21125E2,8.465E1,4.512499999483E1));
#9=LINE('',#8,#7);
#10=CARTESIAN_POINT('',(1.19125E2,8.465E1,-2.1125E1));
#11=DIRECTION('',(0.E0,1.E0,0.E0));
#12=DIRECTION('',(1.E0,0.E0,3.875001652887E-9));
#13=AXIS2_PLACEMENT_3D('',#10,#11,#12);
#15=DIRECTION('',(-1.E0,0.E0,0.E0));
#16=VECTOR('',#15,2.382499999847E2);
#17=CARTESIAN_POINT('',(1.191249999923E2,8.465E1,-2.3125E1));
#18=LINE('',#17,#16);
#19=CARTESIAN_POINT('',(-1.19125E2,8.465E1,-2.1125E1));
#20=DIRECTION('',(0.E0,1.E0,0.E0));
#21=DIRECTION('',(5.750010245720E-9,0.E0,-1.E0));
#22=AXIS2_PLACEMENT_3D('',#19,#20,#21);
#24=DIRECTION('',(0.E0,0.E0,1.E0));
#25=VECTOR('',#24,6.624999998967E1);
#26=CARTESIAN_POINT('',(-1.21125E2,8.465E1,-2.112499999483E1));
#27=LINE('',#26,#25);
#28=CARTESIAN_POINT('',(-1.19125E2,8.465E1,4.5125E1));
#29=DIRECTION('',(0.E0,1.E0,0.E0));
#30=DIRECTION('',(-1.E0,0.E0,-3.875001652887E-9));
#31=AXIS2_PLACEMENT_3D('',#28,#29,#30);
#33=DIRECTION('',(1.E0,0.E0,0.E0));
#34=VECTOR('',#33,2.382499999847E2);
#35=CARTESIAN_POINT('',(-1.191249999923E2,8.465E1,4.7125E1));
#36=LINE('',#35,#34);
#37=DIRECTION('',(-1.E0,0.E0,0.E0));
#38=VECTOR('',#37,2.335000000068E2);
#39=CARTESIAN_POINT('',(1.168749999433E2,8.465E1,4.382499999850E1));
#40=LINE('',#39,#38);
#41=DIRECTION('',(0.E0,0.E0,-1.E0));
#42=VECTOR('',#41,6.350000001183E1);
#43=CARTESIAN_POINT('',(-1.166250000635E2,8.465E1,4.382499999850E1));
#44=LINE('',#43,#42);
#45=DIRECTION('',(1.E0,0.E0,0.E0));
#46=VECTOR('',#45,2.335000000068E2);
#47=CARTESIAN_POINT('',(-1.166250000635E2,8.465E1,-1.967500001333E1));
#48=LINE('',#47,#46);
#49=DIRECTION('',(0.E0,0.E0,1.E0));
#50=VECTOR('',#49,6.350000001183E1);
#51=CARTESIAN_POINT('',(1.168749999433E2,8.465E1,-1.967500001333E1));
#52=LINE('',#51,#50);
#53=CARTESIAN_POINT('',(-1.19125E2,8.615E1,-2.1125E1));
#54=DIRECTION('',(0.E0,1.E0,0.E0));
#55=DIRECTION('',(5.750010245720E-9,0.E0,-1.E0));
#56=AXIS2_PLACEMENT_3D('',#53,#54,#55);
#58=CARTESIAN_POINT('',(1.19125E2,8.615E1,-2.1125E1));
#59=DIRECTION('',(0.E0,1.E0,0.E0));
#60=DIRECTION('',(1.E0,0.E0,3.875001652887E-9));
#61=AXIS2_PLACEMENT_3D('',#58,#59,#60);
#63=CARTESIAN_POINT('',(1.19125E2,8.615E1,4.5125E1));
#64=DIRECTION('',(0.E0,1.E0,0.E0));
#65=DIRECTION('',(-5.750003140292E-9,0.E0,1.E0));
#66=AXIS2_PLACEMENT_3D('',#63,#64,#65);
#68=CARTESIAN_POINT('',(-1.19125E2,8.615E1,4.5125E1));
#69=DIRECTION('',(0.E0,1.E0,0.E0));
#70=DIRECTION('',(-1.E0,0.E0,-3.875001652887E-9));
#71=AXIS2_PLACEMENT_3D('',#68,#69,#70);
#73=DIRECTION('',(0.E0,1.E0,-1.722222956838E-9));
#74=VECTOR('',#73,1.5E0);
#75=CARTESIAN_POINT('',(-1.21125E2,8.465E1,-2.112499999483E1));
#76=LINE('',#75,#74);
#77=DIRECTION('',(0.E0,0.E0,1.E0));
#78=VECTOR('',#77,6.624999999483E1);
#79=CARTESIAN_POINT('',(-1.21125E2,8.615E1,-2.112499999742E1));
#80=LINE('',#79,#78);
#81=DIRECTION('',(0.E0,-1.E0,-1.722222956838E-9));
#82=VECTOR('',#81,1.5E0);
#83=CARTESIAN_POINT('',(-1.21125E2,8.615E1,4.512499999742E1));
#84=LINE('',#83,#82);
#85=DIRECTION('',(2.555556951241E-9,1.E0,0.E0));
#86=VECTOR('',#85,1.5E0);
#87=CARTESIAN_POINT('',(1.191249999923E2,8.465E1,-2.3125E1));
#88=LINE('',#87,#86);
#89=DIRECTION('',(-1.E0,0.E0,0.E0));
#90=VECTOR('',#89,2.382499999923E2);
#91=CARTESIAN_POINT('',(1.191249999962E2,8.615E1,-2.3125E1));
#92=LINE('',#91,#90);
#93=DIRECTION('',(2.555566425144E-9,-1.E0,0.E0));
#94=VECTOR('',#93,1.5E0);
#95=CARTESIAN_POINT('',(-1.191249999962E2,8.615E1,-2.3125E1));
#96=LINE('',#95,#94);
#97=DIRECTION('',(0.E0,1.E0,1.722222956838E-9));
#98=VECTOR('',#97,1.5E0);
#99=CARTESIAN_POINT('',(1.21125E2,8.465E1,4.512499999483E1));
#100=LINE('',#99,#98);
#101=DIRECTION('',(0.E0,0.E0,-1.E0));
#102=VECTOR('',#101,6.624999999483E1);
#103=CARTESIAN_POINT('',(1.21125E2,8.615E1,4.512499999742E1));
#104=LINE('',#103,#102);
#105=DIRECTION('',(0.E0,-1.E0,1.722222956838E-9));
#106=VECTOR('',#105,1.5E0);
#107=CARTESIAN_POINT('',(1.21125E2,8.615E1,-2.112499999742E1));
#108=LINE('',#107,#106);
#109=DIRECTION('',(-2.555556951241E-9,-1.E0,0.E0));
#110=VECTOR('',#109,1.5E0);
#111=CARTESIAN_POINT('',(1.191249999962E2,8.615E1,4.7125E1));
#112=LINE('',#111,#110);
#113=DIRECTION('',(-2.555566425144E-9,1.E0,0.E0));
#114=VECTOR('',#113,1.5E0);
#115=CARTESIAN_POINT('',(-1.191249999923E2,8.465E1,4.7125E1));
#116=LINE('',#115,#114);
#117=DIRECTION('',(1.E0,0.E0,0.E0));
#118=VECTOR('',#117,2.382499999923E2);
#119=CARTESIAN_POINT('',(-1.191249999962E2,8.615E1,4.7125E1));
#120=LINE('',#119,#118);
#121=DIRECTION('',(-1.E0,0.E0,0.E0));
#122=VECTOR('',#121,2.335E2);
#123=CARTESIAN_POINT('',(1.16875E2,8.385E1,4.3825E1));
#124=LINE('',#123,#122);
#125=DIRECTION('',(-7.937501322885E-8,1.E0,-1.874997934692E-9));
#126=VECTOR('',#125,8.E-1);
#127=CARTESIAN_POINT('',(-1.16625E2,8.385E1,4.3825E1));
#128=LINE('',#127,#126);
#129=DIRECTION('',(7.083333031232E-8,-1.E0,1.666665472300E-8));
#130=VECTOR('',#129,8.E-1);
#131=CARTESIAN_POINT('',(1.168749999433E2,8.465E1,-1.967500001333E1));
#132=LINE('',#131,#130);
#133=DIRECTION('',(0.E0,0.E0,1.E0));
#134=VECTOR('',#133,6.35E1);
#135=CARTESIAN_POINT('',(1.16875E2,8.385E1,-1.9675E1));
#136=LINE('',#135,#134);
#137=DIRECTION('',(-7.083334807589E-8,1.E0,-1.874997934692E-9));
#138=VECTOR('',#137,8.E-1);
#139=CARTESIAN_POINT('',(1.16875E2,8.385E1,4.3825E1));
#140=LINE('',#139,#138);
#141=DIRECTION('',(1.E0,0.E0,0.E0));
#142=VECTOR('',#141,2.335E2);
#143=CARTESIAN_POINT('',(-1.16625E2,8.385E1,-1.9675E1));
#144=LINE('',#143,#142);
#145=DIRECTION('',(0.E0,0.E0,-1.E0));
#146=VECTOR('',#145,6.35E1);
#147=CARTESIAN_POINT('',(-1.16625E2,8.385E1,4.3825E1));
#148=LINE('',#147,#146);
#149=DIRECTION('',(-7.937501322885E-8,1.E0,-1.666665472300E-8));
#150=VECTOR('',#149,8.E-1);
#151=CARTESIAN_POINT('',(-1.16625E2,8.385E1,-1.9675E1));
#152=LINE('',#151,#150);
#153=CARTESIAN_POINT('',(-1.191249999923E2,8.465E1,4.7125E1));
#154=CARTESIAN_POINT('',(1.191249999923E2,8.465E1,4.7125E1));
#155=VERTEX_POINT('',#153);
#156=VERTEX_POINT('',#154);
#157=CARTESIAN_POINT('',(-1.21125E2,8.465E1,-2.112499999483E1));
#158=CARTESIAN_POINT('',(-1.21125E2,8.465E1,4.512499999483E1));
#159=VERTEX_POINT('',#157);
#160=VERTEX_POINT('',#158);
#161=CARTESIAN_POINT('',(1.191249999923E2,8.465E1,-2.3125E1));
#162=CARTESIAN_POINT('',(-1.191249999923E2,8.465E1,-2.3125E1));
#163=VERTEX_POINT('',#161);
#164=VERTEX_POINT('',#162);
#165=CARTESIAN_POINT('',(1.21125E2,8.465E1,4.512499999483E1));
#166=CARTESIAN_POINT('',(1.21125E2,8.465E1,-2.112499999483E1));
#167=VERTEX_POINT('',#165);
#168=VERTEX_POINT('',#166);
#169=CARTESIAN_POINT('',(1.168749999433E2,8.465E1,4.382499999850E1));
#170=CARTESIAN_POINT('',(-1.166250000635E2,8.465E1,4.382499999850E1));
#171=VERTEX_POINT('',#169);
#172=VERTEX_POINT('',#170);
#173=CARTESIAN_POINT('',(1.168749999433E2,8.465E1,-1.967500001333E1));
#174=VERTEX_POINT('',#173);
#175=CARTESIAN_POINT('',(-1.166250000635E2,8.465E1,-1.967500001333E1));
#176=VERTEX_POINT('',#175);
#177=CARTESIAN_POINT('',(-1.191249999885E2,8.615E1,-2.3125E1));
#178=CARTESIAN_POINT('',(-1.21125E2,8.615E1,-2.112499999225E1));
#179=VERTEX_POINT('',#177);
#180=VERTEX_POINT('',#178);
#181=CARTESIAN_POINT('',(1.21125E2,8.615E1,-2.112499999225E1));
#182=CARTESIAN_POINT('',(1.191249999885E2,8.615E1,-2.3125E1));
#183=VERTEX_POINT('',#181);
#184=VERTEX_POINT('',#182);
#185=CARTESIAN_POINT('',(1.191249999885E2,8.615E1,4.7125E1));
#186=CARTESIAN_POINT('',(1.21125E2,8.615E1,4.512499999225E1));
#187=VERTEX_POINT('',#185);
#188=VERTEX_POINT('',#186);
#189=CARTESIAN_POINT('',(-1.21125E2,8.615E1,4.512499999225E1));
#190=CARTESIAN_POINT('',(-1.191249999885E2,8.615E1,4.7125E1));
#191=VERTEX_POINT('',#189);
#192=VERTEX_POINT('',#190);
#193=CARTESIAN_POINT('',(1.16875E2,8.385E1,-1.9675E1));
#194=VERTEX_POINT('',#193);
#195=CARTESIAN_POINT('',(1.16875E2,8.385E1,4.3825E1));
#196=VERTEX_POINT('',#195);
#197=CARTESIAN_POINT('',(-1.16625E2,8.385E1,4.3825E1));
#198=VERTEX_POINT('',#197);
#199=CARTESIAN_POINT('',(-1.16625E2,8.385E1,-1.9675E1));
#200=VERTEX_POINT('',#199);
#201=CARTESIAN_POINT('',(0.E0,8.465E1,1.2E1));
#202=DIRECTION('',(0.E0,1.E0,0.E0));
#203=DIRECTION('',(0.E0,0.E0,1.E0));
#204=AXIS2_PLACEMENT_3D('',#201,#202,#203);
#205=PLANE('',#204);
#207=ORIENTED_EDGE('',*,*,#206,.T.);
#209=ORIENTED_EDGE('',*,*,#208,.T.);
#211=ORIENTED_EDGE('',*,*,#210,.T.);
#213=ORIENTED_EDGE('',*,*,#212,.T.);
#215=ORIENTED_EDGE('',*,*,#214,.T.);
#217=ORIENTED_EDGE('',*,*,#216,.T.);
#219=ORIENTED_EDGE('',*,*,#218,.T.);
#221=ORIENTED_EDGE('',*,*,#220,.T.);
#222=EDGE_LOOP('',(#207,#209,#211,#213,#215,#217,#219,#221));
#223=FACE_OUTER_BOUND('',#222,.F.);
#225=ORIENTED_EDGE('',*,*,#224,.T.);
#227=ORIENTED_EDGE('',*,*,#226,.T.);
#229=ORIENTED_EDGE('',*,*,#228,.T.);
#231=ORIENTED_EDGE('',*,*,#230,.T.);
#232=EDGE_LOOP('',(#225,#227,#229,#231));
#233=FACE_BOUND('',#232,.F.);
#234=ADVANCED_FACE('',(#223,#233),#205,.F.);
#235=CARTESIAN_POINT('',(1.19125E2,8.615E1,4.5125E1));
#236=DIRECTION('',(0.E0,-1.E0,0.E0));
#237=DIRECTION('',(0.E0,0.E0,-1.E0));
#238=AXIS2_PLACEMENT_3D('',#235,#236,#237);
#239=CYLINDRICAL_SURFACE('',#238,2.E0);
#241=ORIENTED_EDGE('',*,*,#240,.T.);
#243=ORIENTED_EDGE('',*,*,#242,.F.);
#244=ORIENTED_EDGE('',*,*,#206,.F.);
#246=ORIENTED_EDGE('',*,*,#245,.F.);
#247=EDGE_LOOP('',(#241,#243,#244,#246));
#248=FACE_OUTER_BOUND('',#247,.F.);
#249=ADVANCED_FACE('',(#248),#239,.T.);
#250=CARTESIAN_POINT('',(0.E0,8.615E1,1.2E1));
#251=DIRECTION('',(0.E0,1.E0,0.E0));
#252=DIRECTION('',(0.E0,0.E0,1.E0));
#253=AXIS2_PLACEMENT_3D('',#250,#251,#252);
#254=PLANE('',#253);
#256=ORIENTED_EDGE('',*,*,#255,.F.);
#258=ORIENTED_EDGE('',*,*,#257,.F.);
#260=ORIENTED_EDGE('',*,*,#259,.F.);
#262=ORIENTED_EDGE('',*,*,#261,.F.);
#264=ORIENTED_EDGE('',*,*,#263,.F.);
#265=ORIENTED_EDGE('',*,*,#240,.F.);
#267=ORIENTED_EDGE('',*,*,#266,.F.);
#269=ORIENTED_EDGE('',*,*,#268,.F.);
#270=EDGE_LOOP('',(#256,#258,#260,#262,#264,#265,#267,#269));
#271=FACE_OUTER_BOUND('',#270,.F.);
#272=ADVANCED_FACE('',(#271),#254,.T.);
#273=CARTESIAN_POINT('',(-1.21125E2,8.54E1,1.2E1));
#274=DIRECTION('',(1.E0,0.E0,0.E0));
#275=DIRECTION('',(0.E0,0.E0,-1.E0));
#276=AXIS2_PLACEMENT_3D('',#273,#274,#275);
#277=PLANE('',#276);
#279=ORIENTED_EDGE('',*,*,#278,.T.);
#280=ORIENTED_EDGE('',*,*,#255,.T.);
#282=ORIENTED_EDGE('',*,*,#281,.T.);
#283=ORIENTED_EDGE('',*,*,#216,.F.);
#284=EDGE_LOOP('',(#279,#280,#282,#283));
#285=FACE_OUTER_BOUND('',#284,.F.);
#286=ADVANCED_FACE('',(#285),#277,.F.);
#287=CARTESIAN_POINT('',(-1.19125E2,8.615E1,-2.1125E1));
#288=DIRECTION('',(0.E0,-1.E0,0.E0));
#289=DIRECTION('',(0.E0,0.E0,-1.E0));
#290=AXIS2_PLACEMENT_3D('',#287,#288,#289);
#291=CYLINDRICAL_SURFACE('',#290,2.E0);
#292=ORIENTED_EDGE('',*,*,#257,.T.);
#293=ORIENTED_EDGE('',*,*,#278,.F.);
#294=ORIENTED_EDGE('',*,*,#214,.F.);
#296=ORIENTED_EDGE('',*,*,#295,.F.);
#297=EDGE_LOOP('',(#292,#293,#294,#296));
#298=FACE_OUTER_BOUND('',#297,.F.);
#299=ADVANCED_FACE('',(#298),#291,.T.);
#300=CARTESIAN_POINT('',(0.E0,8.54E1,-2.3125E1));
#301=DIRECTION('',(0.E0,0.E0,1.E0));
#302=DIRECTION('',(1.E0,0.E0,0.E0));
#303=AXIS2_PLACEMENT_3D('',#300,#301,#302);
#304=PLANE('',#303);
#306=ORIENTED_EDGE('',*,*,#305,.T.);
#307=ORIENTED_EDGE('',*,*,#259,.T.);
#308=ORIENTED_EDGE('',*,*,#295,.T.);
#309=ORIENTED_EDGE('',*,*,#212,.F.);
#310=EDGE_LOOP('',(#306,#307,#308,#309));
#311=FACE_OUTER_BOUND('',#310,.F.);
#312=ADVANCED_FACE('',(#311),#304,.F.);
#313=CARTESIAN_POINT('',(1.19125E2,8.615E1,-2.1125E1));
#314=DIRECTION('',(0.E0,-1.E0,0.E0));
#315=DIRECTION('',(0.E0,0.E0,-1.E0));
#316=AXIS2_PLACEMENT_3D('',#313,#314,#315);
#317=CYLINDRICAL_SURFACE('',#316,2.E0);
#318=ORIENTED_EDGE('',*,*,#261,.T.);
#319=ORIENTED_EDGE('',*,*,#305,.F.);
#320=ORIENTED_EDGE('',*,*,#210,.F.);
#322=ORIENTED_EDGE('',*,*,#321,.F.);
#323=EDGE_LOOP('',(#318,#319,#320,#322));
#324=FACE_OUTER_BOUND('',#323,.F.);
#325=ADVANCED_FACE('',(#324),#317,.T.);
#326=CARTESIAN_POINT('',(1.21125E2,8.54E1,1.2E1));
#327=DIRECTION('',(1.E0,0.E0,0.E0));
#328=DIRECTION('',(0.E0,0.E0,1.E0));
#329=AXIS2_PLACEMENT_3D('',#326,#327,#328);
#330=PLANE('',#329);
#331=ORIENTED_EDGE('',*,*,#242,.T.);
#332=ORIENTED_EDGE('',*,*,#263,.T.);
#333=ORIENTED_EDGE('',*,*,#321,.T.);
#334=ORIENTED_EDGE('',*,*,#208,.F.);
#335=EDGE_LOOP('',(#331,#332,#333,#334));
#336=FACE_OUTER_BOUND('',#335,.F.);
#337=ADVANCED_FACE('',(#336),#330,.T.);
#338=CARTESIAN_POINT('',(-1.19125E2,8.615E1,4.5125E1));
#339=DIRECTION('',(0.E0,-1.E0,0.E0));
#340=DIRECTION('',(0.E0,0.E0,-1.E0));
#341=AXIS2_PLACEMENT_3D('',#338,#339,#340);
#342=CYLINDRICAL_SURFACE('',#341,2.E0);
#343=ORIENTED_EDGE('',*,*,#268,.T.);
#345=ORIENTED_EDGE('',*,*,#344,.F.);
#346=ORIENTED_EDGE('',*,*,#218,.F.);
#347=ORIENTED_EDGE('',*,*,#281,.F.);
#348=EDGE_LOOP('',(#343,#345,#346,#347));
#349=FACE_OUTER_BOUND('',#348,.F.);
#350=ADVANCED_FACE('',(#349),#342,.T.);
#351=CARTESIAN_POINT('',(0.E0,8.54E1,4.7125E1));
#352=DIRECTION('',(0.E0,0.E0,1.E0));
#353=DIRECTION('',(-1.E0,0.E0,0.E0));
#354=AXIS2_PLACEMENT_3D('',#351,#352,#353);
#355=PLANE('',#354);
#356=ORIENTED_EDGE('',*,*,#245,.T.);
#357=ORIENTED_EDGE('',*,*,#220,.F.);
#358=ORIENTED_EDGE('',*,*,#344,.T.);
#359=ORIENTED_EDGE('',*,*,#266,.T.);
#360=EDGE_LOOP('',(#356,#357,#358,#359));
#361=FACE_OUTER_BOUND('',#360,.F.);
#362=ADVANCED_FACE('',(#361),#355,.T.);
#363=CARTESIAN_POINT('',(1.25E-1,8.425E1,4.3825E1));
#364=DIRECTION('',(0.E0,0.E0,1.E0));
#365=DIRECTION('',(-1.E0,0.E0,0.E0));
#366=AXIS2_PLACEMENT_3D('',#363,#364,#365);
#367=PLANE('',#366);
#369=ORIENTED_EDGE('',*,*,#368,.F.);
#371=ORIENTED_EDGE('',*,*,#370,.T.);
#373=ORIENTED_EDGE('',*,*,#372,.T.);
#374=ORIENTED_EDGE('',*,*,#224,.F.);
#375=EDGE_LOOP('',(#369,#371,#373,#374));
#376=FACE_OUTER_BOUND('',#375,.F.);
#377=ADVANCED_FACE('',(#376),#367,.T.);
#378=CARTESIAN_POINT('',(1.16875E2,8.425E1,1.2075E1));
#379=DIRECTION('',(1.E0,0.E0,0.E0));
#380=DIRECTION('',(0.E0,0.E0,1.E0));
#381=AXIS2_PLACEMENT_3D('',#378,#379,#380);
#382=PLANE('',#381);
#384=ORIENTED_EDGE('',*,*,#383,.T.);
#386=ORIENTED_EDGE('',*,*,#385,.T.);
#387=ORIENTED_EDGE('',*,*,#368,.T.);
#388=ORIENTED_EDGE('',*,*,#230,.F.);
#389=EDGE_LOOP('',(#384,#386,#387,#388));
#390=FACE_OUTER_BOUND('',#389,.F.);
#391=ADVANCED_FACE('',(#390),#382,.T.);
#392=CARTESIAN_POINT('',(1.25E-1,8.425E1,-1.9675E1));
#393=DIRECTION('',(0.E0,0.E0,1.E0));
#394=DIRECTION('',(1.E0,0.E0,0.E0));
#395=AXIS2_PLACEMENT_3D('',#392,#393,#394);
#396=PLANE('',#395);
#398=ORIENTED_EDGE('',*,*,#397,.F.);
#400=ORIENTED_EDGE('',*,*,#399,.T.);
#401=ORIENTED_EDGE('',*,*,#383,.F.);
#402=ORIENTED_EDGE('',*,*,#228,.F.);
#403=EDGE_LOOP('',(#398,#400,#401,#402));
#404=FACE_OUTER_BOUND('',#403,.F.);
#405=ADVANCED_FACE('',(#404),#396,.F.);
#406=CARTESIAN_POINT('',(-1.16625E2,8.425E1,1.2075E1));
#407=DIRECTION('',(1.E0,0.E0,0.E0));
#408=DIRECTION('',(0.E0,0.E0,-1.E0));
#409=AXIS2_PLACEMENT_3D('',#406,#407,#408);
#410=PLANE('',#409);
#411=ORIENTED_EDGE('',*,*,#372,.F.);
#413=ORIENTED_EDGE('',*,*,#412,.T.);
#414=ORIENTED_EDGE('',*,*,#397,.T.);
#415=ORIENTED_EDGE('',*,*,#226,.F.);
#416=EDGE_LOOP('',(#411,#413,#414,#415));
#417=FACE_OUTER_BOUND('',#416,.F.);
#418=ADVANCED_FACE('',(#417),#410,.F.);
#419=CARTESIAN_POINT('',(1.25E-1,8.385E1,1.2075E1));
#420=DIRECTION('',(0.E0,1.E0,0.E0));
#421=DIRECTION('',(0.E0,0.E0,1.E0));
#422=AXIS2_PLACEMENT_3D('',#419,#420,#421);
#423=PLANE('',#422);
#424=ORIENTED_EDGE('',*,*,#399,.F.);
#425=ORIENTED_EDGE('',*,*,#412,.F.);
#426=ORIENTED_EDGE('',*,*,#370,.F.);
#427=ORIENTED_EDGE('',*,*,#385,.F.);
#428=EDGE_LOOP('',(#424,#425,#426,#427));
#429=FACE_OUTER_BOUND('',#428,.F.);
#430=ADVANCED_FACE('',(#429),#423,.F.);
#431=CLOSED_SHELL('',(#234,#249,#272,#286,#299,#312,#325,#337,#350,#362,#377,
#391,#405,#418,#430));
#432=MANIFOLD_SOLID_BREP('',#431);
#433=(LENGTH_UNIT()NAMED_UNIT(*)SI_UNIT(.MILLI.,.METRE.));
#434=DIMENSIONAL_EXPONENTS(0.E0,0.E0,0.E0,0.E0,0.E0,0.E0,0.E0);
#435=(NAMED_UNIT(*)PLANE_ANGLE_UNIT()SI_UNIT($,.RADIAN.));
#436=PLANE_ANGLE_MEASURE_WITH_UNIT(PLANE_ANGLE_MEASURE(1.745329251994E-2),#435);
#437=(CONVERSION_BASED_UNIT('DEGREE',#436)NAMED_UNIT(#434)PLANE_ANGLE_UNIT());
#438=(NAMED_UNIT(*)SI_UNIT($,.STERADIAN.)SOLID_ANGLE_UNIT());
#439=UNCERTAINTY_MEASURE_WITH_UNIT(LENGTH_MEASURE(2.522306981091E-2),#433,
'closure',
'Maximum model space distance between geometric entities at asserted connectivities');
#440=(GEOMETRIC_REPRESENTATION_CONTEXT(3)GLOBAL_UNCERTAINTY_ASSIGNED_CONTEXT((
#439))GLOBAL_UNIT_ASSIGNED_CONTEXT((#433,#437,#438))REPRESENTATION_CONTEXT
('ID1','3'));
#442=APPLICATION_CONTEXT(
'CONFIGURATION CONTROLLED 3D DESIGNS OF MECHANICAL PARTS AND ASSEMBLIES');
#443=APPLICATION_PROTOCOL_DEFINITION('international standard',
'config_control_design',1994,#442);
#444=DESIGN_CONTEXT('',#442,'design');
#445=MECHANICAL_CONTEXT('',#442,'mechanical');
#446=PRODUCT('2091_WIDE_PLATE_M_CCT','2091_WIDE_PLATE_M_CCT','NOT SPECIFIED',(
#445));
#447=PRODUCT_DEFINITION_FORMATION_WITH_SPECIFIED_SOURCE('1','LAST_VERSION',#446,
.MADE.);
#451=PRODUCT_CATEGORY('part','');
#452=PRODUCT_RELATED_PRODUCT_CATEGORY('detail','',(#446));
#453=PRODUCT_CATEGORY_RELATIONSHIP('','',#451,#452);
#454=SECURITY_CLASSIFICATION_LEVEL('unclassified');
#455=SECURITY_CLASSIFICATION('','',#454);
#456=CC_DESIGN_SECURITY_CLASSIFICATION(#455,(#447));
#457=APPROVAL_STATUS('approved');
#458=APPROVAL(#457,'');
#459=CC_DESIGN_APPROVAL(#458,(#455,#447,#448));
#460=CALENDAR_DATE(109,3,2);
#461=COORDINATED_UNIVERSAL_TIME_OFFSET(1,0,.AHEAD.);
#462=LOCAL_TIME(17,36,3.4E1,#461);
#463=DATE_AND_TIME(#460,#462);
#464=APPROVAL_DATE_TIME(#463,#458);
#465=DATE_TIME_ROLE('creation_date');
#466=CC_DESIGN_DATE_AND_TIME_ASSIGNMENT(#463,#465,(#448));
#467=DATE_TIME_ROLE('classification_date');
#468=CC_DESIGN_DATE_AND_TIME_ASSIGNMENT(#463,#467,(#455));
#469=PERSON('UNSPECIFIED','UNSPECIFIED',$,$,$,$);
#470=ORGANIZATION('UNSPECIFIED','UNSPECIFIED','UNSPECIFIED');
#471=PERSON_AND_ORGANIZATION(#469,#470);
#472=APPROVAL_ROLE('approver');
#473=APPROVAL_PERSON_ORGANIZATION(#471,#458,#472);
#474=PERSON_AND_ORGANIZATION_ROLE('creator');
#475=CC_DESIGN_PERSON_AND_ORGANIZATION_ASSIGNMENT(#471,#474,(#447,#448));
#476=PERSON_AND_ORGANIZATION_ROLE('design_supplier');
#477=CC_DESIGN_PERSON_AND_ORGANIZATION_ASSIGNMENT(#471,#476,(#447));
#478=PERSON_AND_ORGANIZATION_ROLE('classification_officer');
#479=CC_DESIGN_PERSON_AND_ORGANIZATION_ASSIGNMENT(#471,#478,(#455));
#480=PERSON_AND_ORGANIZATION_ROLE('design_owner');
#481=CC_DESIGN_PERSON_AND_ORGANIZATION_ASSIGNMENT(#471,#480,(#446));
#5=CIRCLE('',#4,2.E0);
#14=CIRCLE('',#13,2.E0);
#23=CIRCLE('',#22,2.E0);
#32=CIRCLE('',#31,2.E0);
#57=CIRCLE('',#56,2.E0);
#62=CIRCLE('',#61,2.E0);
#67=CIRCLE('',#66,2.E0);
#72=CIRCLE('',#71,2.E0);
#206=EDGE_CURVE('',#156,#167,#5,.T.);
#208=EDGE_CURVE('',#167,#168,#9,.T.);
#210=EDGE_CURVE('',#168,#163,#14,.T.);
#212=EDGE_CURVE('',#163,#164,#18,.T.);
#214=EDGE_CURVE('',#164,#159,#23,.T.);
#216=EDGE_CURVE('',#159,#160,#27,.T.);
#218=EDGE_CURVE('',#160,#155,#32,.T.);
#220=EDGE_CURVE('',#155,#156,#36,.T.);
#224=EDGE_CURVE('',#171,#172,#40,.T.);
#226=EDGE_CURVE('',#172,#176,#44,.T.);
#228=EDGE_CURVE('',#176,#174,#48,.T.);
#230=EDGE_CURVE('',#174,#171,#52,.T.);
#240=EDGE_CURVE('',#187,#188,#67,.T.);
#242=EDGE_CURVE('',#167,#188,#100,.T.);
#245=EDGE_CURVE('',#187,#156,#112,.T.);
#255=EDGE_CURVE('',#180,#191,#80,.T.);
#257=EDGE_CURVE('',#179,#180,#57,.T.);
#259=EDGE_CURVE('',#184,#179,#92,.T.);
#261=EDGE_CURVE('',#183,#184,#62,.T.);
#263=EDGE_CURVE('',#188,#183,#104,.T.);
#266=EDGE_CURVE('',#192,#187,#120,.T.);
#268=EDGE_CURVE('',#191,#192,#72,.T.);
#278=EDGE_CURVE('',#159,#180,#76,.T.);
#281=EDGE_CURVE('',#191,#160,#84,.T.);
#295=EDGE_CURVE('',#179,#164,#96,.T.);
#305=EDGE_CURVE('',#163,#184,#88,.T.);
#321=EDGE_CURVE('',#183,#168,#108,.T.);
#344=EDGE_CURVE('',#155,#192,#116,.T.);
#368=EDGE_CURVE('',#196,#171,#140,.T.);
#370=EDGE_CURVE('',#196,#198,#124,.T.);
#372=EDGE_CURVE('',#198,#172,#128,.T.);
#383=EDGE_CURVE('',#174,#194,#132,.T.);
#385=EDGE_CURVE('',#194,#196,#136,.T.);
#397=EDGE_CURVE('',#200,#176,#152,.T.);
#399=EDGE_CURVE('',#200,#194,#144,.T.);
#412=EDGE_CURVE('',#198,#200,#148,.T.);
#441=ADVANCED_BREP_SHAPE_REPRESENTATION('',(#432),#440);
#448=PRODUCT_DEFINITION('design','',#447,#444);
#449=PRODUCT_DEFINITION_SHAPE('','SHAPE FOR 2091_WIDE_PLATE_M_CCT.',#448);
#450=SHAPE_DEFINITION_REPRESENTATION(#449,#441);
ENDSEC;
END-ISO-10303-21;
