  0
SECTION
  2
HEADER
  9
$ACADVER
  1
AC1015
  9
$ACADMAINTVER
 70
    20
  9
$DWGCODEPAGE
  3
ANSI_1252
  9
$INSBASE
 10
0.0
 20
0.0
 30
0.0
  9
$EXTMIN
 10
-268.1358485883179
 20
-234.5616975111572
 30
0.0
  9
$EXTMAX
 10
1733.373020025295
 20
905.1096614029717
 30
79.8261
  9
$LIMMIN
 10
0.0
 20
0.0
  9
$LIMMAX
 10
420.0
 20
297.0
  9
$ORTHOMODE
 70
     1
  9
$REGENMODE
 70
     1
  9
$FILLMODE
 70
     1
  9
$QTEXTMODE
 70
     0
  9
$MIRRTEXT
 70
     1
  9
$LTSCALE
 40
0.25
  9
$ATTMODE
 70
     1
  9
$TEXTSIZE
 40
3.2
  9
$TRACEWID
 40
1.0
  9
$TEXTSTYLE
  7
STANDARD
  9
$CLAYER
  8
4
  9
$CELTYPE
  6
BYLAYER
  9
$CECOLOR
 62
   256
  9
$CELTSCALE
 40
1.0
  9
$DISPSILH
 70
     0
  9
$DIMSCALE
 40
0.0
  9
$DIMASZ
 40
2.6
  9
$DIMEXO
 40
0.625
  9
$DIMDLI
 40
3.75
  9
$DIMRND
 40
0.0
  9
$DIMDLE
 40
0.0
  9
$DIMEXE
 40
1.25
  9
$DIMTP
 40
0.0
  9
$DIMTM
 40
0.0
  9
$DIMTXT
 40
3.2
  9
$DIMCEN
 40
0.0
  9
$DIMTSZ
 40
0.0
  9
$DIMTOL
 70
     0
  9
$DIMLIM
 70
     0
  9
$DIMTIH
 70
     0
  9
$DIMTOH
 70
     0
  9
$DIMSE1
 70
     0
  9
$DIMSE2
 70
     0
  9
$DIMTAD
 70
     1
  9
$DIMZIN
 70
     8
  9
$DIMBLK
  1

  9
$DIMASO
 70
     1
  9
$DIMSHO
 70
     1
  9
$DIMPOST
  1

  9
$DIMAPOST
  1

  9
$DIMALT
 70
     0
  9
$DIMALTD
 70
     4
  9
$DIMALTF
 40
0.0394
  9
$DIMLFAC
 40
1.0
  9
$DIMTOFL
 70
     1
  9
$DIMTVP
 40
0.0
  9
$DIMTIX
 70
     0
  9
$DIMSOXD
 70
     0
  9
$DIMSAH
 70
     0
  9
$DIMBLK1
  1

  9
$DIMBLK2
  1

  9
$DIMSTYLE
  2
STANDARD
  9
$DIMCLRD
 70
     0
  9
$DIMCLRE
 70
     0
  9
$DIMCLRT
 70
     0
  9
$DIMTFAC
 40
1.0
  9
$DIMGAP
 40
0.625
  9
$DIMJUST
 70
     0
  9
$DIMSD1
 70
     0
  9
$DIMSD2
 70
     0
  9
$DIMTOLJ
 70
     1
  9
$DIMTZIN
 70
     0
  9
$DIMALTZ
 70
     0
  9
$DIMALTTZ
 70
     0
  9
$DIMUPT
 70
     1
  9
$DIMDEC
 70
     2
  9
$DIMTDEC
 70
     2
  9
$DIMALTU
 70
     8
  9
$DIMALTTD
 70
     4
  9
$DIMTXSTY
  7
STANDARD
  9
$DIMAUNIT
 70
     0
  9
$DIMADEC
 70
     0
  9
$DIMALTRND
 40
0.0
  9
$DIMAZIN
 70
     0
  9
$DIMDSEP
 70
    46
  9
$DIMATFIT
 70
     3
  9
$DIMFRAC
 70
     0
  9
$DIMLDRBLK
  1

  9
$DIMLUNIT
 70
     2
  9
$DIMLWD
 70
    -2
  9
$DIMLWE
 70
    -2
  9
$DIMTMOVE
 70
     0
  9
$LUNITS
 70
     2
  9
$LUPREC
 70
     4
  9
$SKETCHINC
 40
1.0
  9
$FILLETRAD
 40
1.5
  9
$AUNITS
 70
     0
  9
$AUPREC
 70
     4
  9
$MENU
  1
.
  9
$ELEVATION
 40
0.0
  9
$PELEVATION
 40
0.0
  9
$THICKNESS
 40
0.0
  9
$LIMCHECK
 70
     0
  9
$CHAMFERA
 40
10.0
  9
$CHAMFERB
 40
10.0
  9
$CHAMFERC
 40
20.0
  9
$CHAMFERD
 40
0.0
  9
$SKPOLY
 70
     0
  9
$TDCREATE
 40
2451675.685234491
  9
$TDUCREATE
 40
2451675.601901158
  9
$TDUPDATE
 40
2454697.584206632
  9
$TDUUPDATE
 40
2454697.500873299
  9
$TDINDWG
 40
9.0419070255
  9
$TDUSRTIMER
 40
9.0419070255
  9
$USRTIMER
 70
     1
  9
$ANGBASE
 50
0.0
  9
$ANGDIR
 70
     0
  9
$PDMODE
 70
     0
  9
$PDSIZE
 40
0.0
  9
$PLINEWID
 40
0.0
  9
$SPLFRAME
 70
     0
  9
$SPLINETYPE
 70
     6
  9
$SPLINESEGS
 70
    32
  9
$HANDSEED
  5
3D6
  9
$SURFTAB1
 70
     6
  9
$SURFTAB2
 70
     6
  9
$SURFTYPE
 70
     6
  9
$SURFU
 70
     6
  9
$SURFV
 70
     6
  9
$UCSBASE
  2

  9
$UCSNAME
  2

  9
$UCSORG
 10
0.0
 20
0.0
 30
0.0
  9
$UCSXDIR
 10
1.0
 20
0.0
 30
0.0
  9
$UCSYDIR
 10
0.0
 20
1.0
 30
0.0
  9
$UCSORTHOREF
  2

  9
$UCSORTHOVIEW
 70
     0
  9
$UCSORGTOP
 10
0.0
 20
0.0
 30
0.0
  9
$UCSORGBOTTOM
 10
0.0
 20
0.0
 30
0.0
  9
$UCSORGLEFT
 10
0.0
 20
0.0
 30
0.0
  9
$UCSORGRIGHT
 10
0.0
 20
0.0
 30
0.0
  9
$UCSORGFRONT
 10
0.0
 20
0.0
 30
0.0
  9
$UCSORGBACK
 10
0.0
 20
0.0
 30
0.0
  9
$PUCSBASE
  2

  9
$PUCSNAME
  2

  9
$PUCSORG
 10
0.0
 20
0.0
 30
0.0
  9
$PUCSXDIR
 10
1.0
 20
0.0
 30
0.0
  9
$PUCSYDIR
 10
0.0
 20
1.0
 30
0.0
  9
$PUCSORTHOREF
  2

  9
$PUCSORTHOVIEW
 70
     0
  9
$PUCSORGTOP
 10
0.0
 20
0.0
 30
0.0
  9
$PUCSORGBOTTOM
 10
0.0
 20
0.0
 30
0.0
  9
$PUCSORGLEFT
 10
0.0
 20
0.0
 30
0.0
  9
$PUCSORGRIGHT
 10
0.0
 20
0.0
 30
0.0
  9
$PUCSORGFRONT
 10
0.0
 20
0.0
 30
0.0
  9
$PUCSORGBACK
 10
0.0
 20
0.0
 30
0.0
  9
$USERI1
 70
     0
  9
$USERI2
 70
     0
  9
$USERI3
 70
     0
  9
$USERI4
 70
     0
  9
$USERI5
 70
     0
  9
$USERR1
 40
0.0
  9
$USERR2
 40
0.0
  9
$USERR3
 40
0.0
  9
$USERR4
 40
0.0
  9
$USERR5
 40
0.0
  9
$WORLDVIEW
 70
     1
  9
$SHADEDGE
 70
     3
  9
$SHADEDIF
 70
    70
  9
$TILEMODE
 70
     1
  9
$MAXACTVP
 70
    48
  9
$PINSBASE
 10
0.0
 20
0.0
 30
0.0
  9
$PLIMCHECK
 70
     0
  9
$PEXTMIN
 10
1.000000000000000E+20
 20
1.000000000000000E+20
 30
1.000000000000000E+20
  9
$PEXTMAX
 10
-1.000000000000000E+20
 20
-1.000000000000000E+20
 30
-1.000000000000000E+20
  9
$PLIMMIN
 10
0.0
 20
0.0
  9
$PLIMMAX
 10
420.0
 20
297.0
  9
$UNITMODE
 70
     0
  9
$VISRETAIN
 70
     1
  9
$PLINEGEN
 70
     0
  9
$PSLTSCALE
 70
     1
  9
$TREEDEPTH
 70
  3020
  9
$CMLSTYLE
  2
STANDARD
  9
$CMLJUST
 70
     0
  9
$CMLSCALE
 40
20.0
  9
$PROXYGRAPHICS
 70
     1
  9
$MEASUREMENT
 70
     1
  9
$CELWEIGHT
370
    -1
  9
$ENDCAPS
280
     0
  9
$JOINSTYLE
280
     0
  9
$LWDISPLAY
290
     0
  9
$INSUNITS
 70
     0
  9
$HYPERLINKBASE
  1

  9
$STYLESHEET
  1

  9
$XEDIT
290
     1
  9
$CEPSNTYPE
380
     0
  9
$PSTYLEMODE
290
     1
  9
$FINGERPRINTGUID
  2
{E8B726C8-71EC-47ED-9FB0-498B16CB8B66}
  9
$VERSIONGUID
  2
{4199C1A2-C8DA-402B-B1B9-2FC0E46592BE}
  9
$EXTNAMES
290
     1
  9
$PSVPSCALE
 40
0.0
  9
$OLESTARTUP
290
     0
  0
ENDSEC
  0
SECTION
  2
CLASSES
  0
CLASS
  1
ACMESTATEMGR
  2
AcMeStateMgr
  3
AcMeServices
 90
        0
280
     0
281
     0
  0
CLASS
  1
ACMESCOPE
  2
AcMeScope
  3
AcMeServices
 90
        0
280
     0
281
     0
  0
CLASS
  1
ACMECOMMANDHISTORY
  2
AcMeCommandHistory
  3
AcMeServices
 90
    32768
280
     0
281
     0
  0
CLASS
  1
ACRFINSADJUSTERMGR
  2
AcRfInsAdjusterMgr
  3
AcMeServices
 90
    32768
280
     0
281
     0
  0
CLASS
  1
DICTIONARYVAR
  2
AcDbDictionaryVar
  3
ObjectDBX Classes
 90
        0
280
     0
281
     0
  0
CLASS
  1
ACIMSYSVARMAN
  2
AcImSysVarManager
  3
AcMeServices
 90
        0
280
     0
281
     0
  0
CLASS
  1
ACIMREALSYSVAR
  2
AcImRealSysVar
  3
AcMeServices
 90
        0
280
     0
281
     0
  0
CLASS
  1
ACIMINTSYSVAR
  2
AcImIntSysVar
  3
AcMeServices
 90
        0
280
     0
281
     0
  0
CLASS
  1
ACMEDRAWINGMAN
  2
AcMeDrawingMan
  3
AcMeServices
 90
    32768
280
     0
281
     0
  0
CLASS
  1
ACMEVIEW
  2
AcMeView
  3
AcMeServices
 90
    32768
280
     0
281
     0
  0
CLASS
  1
ACDBENTITYCACHE
  2
AcMeEntityCache
  3
AcMeServices
 90
    32768
280
     0
281
     0
  0
CLASS
  1
ACGREFMASTER
  2
AcGrefMaster
  3
AcAttribServices
 90
        0
280
     0
281
     0
  0
CLASS
  1
AMIMASTER
  2
AmiMaster
  3
AmiServices
 90
    32768
280
     0
281
     0
  0
CLASS
  1
ACASGREFMASTER
  2
AcAsGrefMaster
  3
AutoSurfResolverServices
 90
    32768
280
     0
281
     0
  0
CLASS
  1
ADAPPL
  2
AcAdAppl
  3
DesignerServices
 90
        0
280
     0
281
     0
  0
CLASS
  1
DEPMGR
  2
AcAdDepMgr
  3
DesignerServices
 90
        0
280
     0
281
     0
  0
CLASS
  1
PARAMMGR
  2
AcAdParamMgr
  3
DesignerServices
 90
        0
280
     0
281
     0
  0
CLASS
  1
PARAMSCOPE
  2
AcAdParamScope
  3
DesignerServices
 90
        0
280
     0
281
     0
  0
CLASS
  1
ACIMSTRSYSVAR
  2
AcImStrSysVar
  3
AcMeServices
 90
        0
280
     0
281
     0
  0
CLASS
  1
NAMEDAPPL
  2
AcAdNamedAppl
  3
DesignerServices
 90
        0
280
     0
281
     0
  0
CLASS
  1
ADHNTMPLT
  2
AdHoleNoteTemplateMgr
  3
DesignerServices
 90
    32768
280
     0
281
     0
  0
CLASS
  1
AM_HNTEMPLATE_MGR_NAME
  2
AdHoleNoteTemplateMgrName
  3
DesignerServices
 90
    32768
280
     0
281
     0
  0
CLASS
  1
ACADGREFMODULE
  2
AcAdGrefModule
  3
AdGrefServices
 90
    32768
280
     0
281
     0
  0
CLASS
  1
AM_DRAWING_MGR
  2
AcDmDwgMgr
  3
AcMechDwgViewMgmt
 90
        0
280
     0
281
     0
  0
CLASS
  1
AM_DWG_DOCUMENT
  2
AcDmDwgDocument
  3
AcMechDwgViewMgmt
 90
        0
280
     0
281
     0
  0
CLASS
  1
AM_DWG_SHEET
  2
AcDmSheet
  3
AcMechDwgViewMgmt
 90
        0
280
     0
281
     0
  0
CLASS
  1
AM_VIEWDIMPARMAP
  2
AcDmViewDimParMap
  3
AcMechDwgViewMgmt
 90
        0
280
     0
281
     0
  0
CLASS
  1
AM_DWGMGR_NAME
  2
AcDmDwgMgrName
  3
AcMechDwgViewMgmt
 90
        0
280
     0
281
     0
  0
CLASS
  1
ACAMPROJECT
  2
AcAmProject
  3
DesignerAssemblies
 90
    32768
280
     0
281
     0
  0
CLASS
  1
ACAMGRCOMPSET
  2
AcAmGrCompSet
  3
DesignerAssemblies
 90
    32768
280
     1
281
     0
  0
CLASS
  1
ACAMGRCOMPDEFSET
  2
AcAmGrCompDefSet
  3
DesignerAssemblies
 90
    32768
280
     0
281
     0
  0
CLASS
  1
ACAMGRCOMPDEF
  2
AcAmGrCompDef
  3
DesignerAssemblies
 90
    32768
280
     0
281
     0
  0
CLASS
  1
ACCMCONTEXT
  2
AcCmContext
  3
DesignerAssemblies
 90
    32768
280
     0
281
     0
  0
CLASS
  1
ACAMCOMPDEF
  2
AcAmCompDef
  3
DesignerAssemblies
 90
    32768
280
     0
281
     0
  0
CLASS
  1
ACAMCOMPDEFMGR
  2
AcAmCompDefMgr
  3
DesignerAssemblies
 90
    32768
280
     0
281
     0
  0
CLASS
  1
AMCONTEXTMGR
  2
AcAmContextMgr
  3
DesignerAssemblies
 90
    32768
280
     0
281
     0
  0
CLASS
  1
ACAMCONTEXTMODELER
  2
AcAmContextModeler
  3
DesignerAssemblies
 90
    32768
280
     0
281
     0
  0
CLASS
  1
ACMDATADICTIONARY
  2
AcmDataDictionary
  3
"AcmSymBB|Product Description: AutoCAD Mechanical 2004 DX|Company: Autodesk"
 90
    32768
280
     0
281
     0
  0
CLASS
  1
ACMDATAENTRYBLOCK
  2
AcmDataEntryBlock
  3
"AcmSymBB|Product Description: AutoCAD Mechanical 2004 DX|Company: Autodesk"
 90
    32768
280
     0
281
     0
  0
CLASS
  1
ACDMVIEWGEOM
  2
AcDmViewGeometry
  3
AcMechDwgViewMgmt
 90
    32768
280
     0
281
     1
  0
CLASS
  1
CBROWSERAPPOBJECT
  2
CBrowserAppObject
  3
McadcomServices
 90
    32768
280
     0
281
     0
  0
CLASS
  1
IM_STATIC_MAN
  2
AcImStaticVarManager
  3
AcMeServices
 90
    32768
280
     0
281
     0
  0
CLASS
  1
ASAPP
  2
AcAsAppObject
  3
AutoSurfServices
 90
    32768
280
     0
281
     0
  0
CLASS
  1
ACIMDBLSTATICVAR
  2
AcImDblStaticVar
  3
AcMeServices
 90
    32768
280
     0
281
     0
  0
CLASS
  1
ACIMSTRSTATICVAR
  2
AcImStrStaticVar
  3
AcMeServices
 90
    32768
280
     0
281
     0
  0
CLASS
  1
ACIMINTSTATICVAR
  2
AcImIntStaticVar
  3
AcMeServices
 90
    32768
280
     0
281
     0
  0
CLASS
  1
CATALOGSTATE
  2
AcAmCatalogState
  3
DesignerAssemblies
 90
    32768
280
     0
281
     0
  0
CLASS
  1
DM_PLACEHOLDER
  2
AcDmSelsetPlaceholder
  3
AcMechDwgViewMgmt
 90
    32768
280
     0
281
     0
  0
CLASS
  1
LAYER_INDEX
  2
AcDbLayerIndex
  3
ObjectDBX Classes
 90
    32768
280
     0
281
     0
  0
CLASS
  1
IDBUFFER
  2
AcDbIdBuffer
  3
ObjectDBX Classes
 90
    32768
280
     0
281
     0
  0
CLASS
  1
ACME_DOCUMENT
  2
AcMeDoc
  3
AcMeServices
 90
    32768
280
     1
281
     0
  0
CLASS
  1
ADPART
  2
AcAdPart
  3
DesignerServices
 90
    32768
280
     0
281
     1
  0
CLASS
  1
ADBASE
  2
AcAdBase
  3
DesignerServices
 90
    32768
280
     0
281
     0
  0
CLASS
  1
BODYID
  2
AcAdBodyId
  3
DesignerServices
 90
    32768
280
     0
281
     0
  0
CLASS
  1
WORKPLANEDISPLAYMGR
  2
AcAdDisplayMgr
  3
DesignerServices
 90
    32768
280
     0
281
     0
  0
CLASS
  1
DATUMPLANEDISPLAY
  2
AcAdDatumPlaneDisplay
  3
DesignerServices
 90
    32768
280
     0
281
     1
  0
CLASS
  1
ADDATUMPLANEABS
  2
AcAdDatumPlaneAbs
  3
DesignerServices
 90
    32768
280
     0
281
     0
  0
CLASS
  1
ACMELINEARARROW
  2
AcImLinearArrowDisplay
  3
AcMeServices
 90
    32768
280
     0
281
     1
  0
CLASS
  1
ADDATUMAXISABS
  2
AcAdDatumAxisAbs
  3
DesignerServices
 90
    32768
280
     0
281
     0
  0
CLASS
  1
ADDATUMORIENTEDPLANE
  2
AcAdDatumOrientedPlane
  3
DesignerServices
 90
    32768
280
     0
281
     0
  0
CLASS
  1
ACMEPLINE
  2
AcImPlineDisplay
  3
AcMeServices
 90
    32768
280
     0
281
     1
  0
CLASS
  1
ACRFATTGENMGR
  2
AcRfAttGeneralMgr
  3
AcAttribServices
 90
    32768
280
     0
281
     0
  0
CLASS
  1
ACCMBODY
  2
AcCmBody
  3
DesignerAssemblies
 90
    32768
280
     0
281
     0
  0
CLASS
  1
ACAMGRCOMP
  2
AcAmGrComp
  3
DesignerAssemblies
 90
    32768
280
     0
281
     0
  0
CLASS
  1
ACAMCOMPFEEDBACK
  2
AcAmCompFeedback
  3
DesignerAssemblies
 90
    32768
280
     0
281
     0
  0
CLASS
  1
ACAMCOMP
  2
AcAmComp
  3
DesignerAssemblies
 90
    32768
280
     0
281
     0
  0
CLASS
  1
ACAMGRCOMPCLONE
  2
AcAmGrCompClone
  3
DesignerAssemblies
 90
    32768
280
     0
281
     0
  0
CLASS
  1
ACAMCLONEREACTOR
  2
AcAmGrCompCloneReactor
  3
DesignerAssemblies
 90
    32768
280
     0
281
     0
  0
CLASS
  1
AGDICTIONARY
  2
AgDictionary
  3
"AccelView"
 90
    32769
280
     0
281
     0
  0
CLASS
  1
ACADLINEACAD
  2
AcAdVirtualBoundedLineAcad
  3
DesignerServices
 90
    32768
280
     0
281
     0
  0
CLASS
  1
ACADREFLINEACAD
  2
AcAdVirtualReferenceLine
  3
DesignerServices
 90
    32768
280
     0
281
     0
  0
CLASS
  1
ACADCONSLINE
  2
AcAdConstrainedLine
  3
DesignerServices
 90
    32768
280
     0
281
     0
  0
CLASS
  1
ACADCONSGROUP
  2
AcAdConstraintGroup
  3
DesignerServices
 90
    32768
280
     0
281
     0
  0
CLASS
  1
ACADIMPPTACAD
  2
AcAdVirtualImplicitPoint
  3
DesignerServices
 90
    32768
280
     0
281
     0
  0
CLASS
  1
ACADCONSPOINT
  2
AcAdConstrainedPoint
  3
DesignerServices
 90
    32768
280
     0
281
     0
  0
CLASS
  1
ADPCURCNS
  2
AcAdPointCurveConstr
  3
DesignerServices
 90
    32768
280
     0
281
     0
  0
CLASS
  1
ADVERCNS
  2
AcAdVerticalConstr
  3
DesignerServices
 90
    32768
280
     0
281
     0
  0
CLASS
  1
ADHORCNS
  2
AcAdHorizontalConstr
  3
DesignerServices
 90
    32768
280
     0
281
     0
  0
CLASS
  1
ADCLPROF2D
  2
AcAdClosedProfile2d
  3
DesignerServices
 90
    32768
280
     0
281
     0
  0
CLASS
  1
ADCONSDISP
  2
AcAdConstraintDisplay
  3
DesignerServices
 90
    32768
280
     0
281
     1
  0
CLASS
  1
ADCONSTDSP
  2
AcAdConstraintDisplayTag
  3
DesignerServices
 90
    32768
280
     0
281
     1
  0
CLASS
  1
ADEQUALLENGTHCNS
  2
AcAdEqualLengthConstr
  3
DesignerServices
 90
    32768
280
     0
281
     0
  0
CLASS
  1
PARAM
  2
AcAdParam
  3
DesignerServices
 90
    32768
280
     0
281
     0
  0
CLASS
  1
ADEXTRUSIONBLIND
  2
AcAdExtrusionBlind
  3
DesignerServices
 90
    32768
280
     0
281
     0
  0
CLASS
  1
DEPEDGEFEATUREORDERING
  2
AcAdDepEdgeFeatureOrdering
  3
DesignerServices
 90
    32768
280
     0
281
     0
  0
CLASS
  1
ACADARCACAD
  2
AcAdVirtualArcAcad
  3
DesignerServices
 90
    32768
280
     0
281
     0
  0
CLASS
  1
ACADCONSCIRCLE
  2
AcAdConstrainedCircle
  3
DesignerServices
 90
    32768
280
     0
281
     0
  0
CLASS
  1
ADCTRPTCNS
  2
AcAdCenterPointConstr
  3
DesignerServices
 90
    32768
280
     0
281
     0
  0
CLASS
  1
ADCOLNCNS
  2
AcAdColinearConstr
  3
DesignerServices
 90
    32768
280
     0
281
     0
  0
CLASS
  1
ADTANCNS
  2
AcAdTangentConstr
  3
DesignerServices
 90
    32768
280
     0
281
     0
  0
CLASS
  1
ADEQRADCNS
  2
AcAdEqualRadiusConstr
  3
DesignerServices
 90
    32768
280
     0
281
     0
  0
CLASS
  1
ADPATH2D
  2
AcAdPath2d
  3
DesignerServices
 90
    32768
280
     0
281
     0
  0
CLASS
  1
ADDATUMPLANEXSECT
  2
AcAdDatumPlaneXSect
  3
DesignerServices
 90
    32768
280
     0
281
     0
  0
CLASS
  1
DATUMPOINTDISPLAY
  2
AcAdDatumPointDisplay
  3
DesignerServices
 90
    32768
280
     0
281
     1
  0
CLASS
  1
ADDATUMPOINTPATHSTART
  2
AcAdDatumPointPathStart
  3
DesignerServices
 90
    32768
280
     0
281
     0
  0
CLASS
  1
ADSWEEP
  2
AcAdSweep
  3
DesignerServices
 90
    32768
280
     0
281
     0
  0
CLASS
  1
ACADCIRCLEACAD
  2
AcAdVirtualCircleAcad
  3
DesignerServices
 90
    32768
280
     0
281
     0
  0
CLASS
  1
DATUMAXISDISPLAY
  2
AcAdDatumAxisDisplay
  3
DesignerServices
 90
    32768
280
     0
281
     1
  0
CLASS
  1
ADDATUMAXISCENTER
  2
AcAdDatumAxisCenter
  3
DesignerServices
 90
    32768
280
     0
281
     0
  0
CLASS
  1
ADSURFGEOMID
  2
AcAdSurfGeomId
  3
DesignerServices
 90
    32768
280
     0
281
     0
  0
CLASS
  1
ADDATUMPLANEOFFSET
  2
AcAdDatumPlaneOffset
  3
DesignerServices
 90
    32768
280
     0
281
     0
  0
CLASS
  1
ADREVOLUTIONFULL
  2
AcAdRevolutionFull
  3
DesignerServices
 90
    32768
280
     0
281
     0
  0
CLASS
  1
ACMEPOINT
  2
AcImPointDisplay
  3
AcMeServices
 90
    32768
280
     0
281
     1
  0
CLASS
  1
ACMEROTATIONARROW
  2
AcImRotationArrowDisplay
  3
AcMeServices
 90
    32768
280
     0
281
     1
  0
CLASS
  1
ACMETEXT
  2
AcImTextDisplay
  3
AcMeServices
 90
    32768
280
     0
281
     1
  0
CLASS
  1
ADFEATRECTARRAY
  2
AcAdRectangularFeatArray
  3
DesignerServices
 90
    32768
280
     0
281
     0
  0
CLASS
  1
ADEXTRUSIONMIDPLANE
  2
AcAdExtrusionMidplane
  3
DesignerServices
 90
    32768
280
     0
281
     0
  0
CLASS
  1
ADPLANEID
  2
AcAdPlaneId
  3
DesignerServices
 90
    32768
280
     0
281
     0
  0
CLASS
  1
ADDATUMPLANEFACE
  2
AcAdDatumPlaneFace
  3
DesignerServices
 90
    32768
280
     0
281
     0
  0
CLASS
  1
EDGEID
  2
AcAdEdgeId
  3
DesignerServices
 90
    32768
280
     0
281
     0
  0
CLASS
  1
DEPEDGESECONDARYDEPID
  2
AcAdDepEdgeSecondaryDepId
  3
DesignerServices
 90
    32768
280
     0
281
     0
  0
CLASS
  1
ADFILLET
  2
AcAdFillet
  3
DesignerServices
 90
    32768
280
     0
281
     0
  0
CLASS
  1
AMACTIVEPARTSELECTFILTER
  2
AcDmActivePartViewEntFilter
  3
DesignerServices
 90
    32768
280
     0
281
     0
  0
CLASS
  1
AM_ABS_PLANE
  2
AcDmAbsPlnDef
  3
AcMechDwgViewMgmt
 90
    32768
280
     0
281
     0
  0
CLASS
  1
AM_ABS_AXIS
  2
AcDmAbsAxisDef
  3
AcMechDwgViewMgmt
 90
    32768
280
     0
281
     0
  0
CLASS
  1
AM_BASE_VIEW_ORIENT
  2
AcDmBaseViewOr
  3
AcMechDwgViewMgmt
 90
    32768
280
     0
281
     0
  0
CLASS
  1
AM_DWG_VIEWPORT
  2
AcDmViewport
  3
AcMechDwgViewMgmt
 90
    32768
280
     0
281
     0
  0
CLASS
  1
AM_VIEW_DISPLAY
  2
AcDmDwgViewDisplay
  3
AcMechDwgViewMgmt
 90
    32768
280
     0
281
     0
  0
CLASS
  1
AM_BASE_VIEW
  2
AcDmBaseView
  3
AcMechDwgViewMgmt
 90
    32768
280
     0
281
     0
  0
CLASS
  1
ACDMVWEDLINE
  2
AcDmViewEdgeLine
  3
AcMechDwgViewMgmt
 90
    32768
280
     0
281
     1
  0
CLASS
  1
ACDMVWEDARC
  2
AcDmViewEdgeArc
  3
AcMechDwgViewMgmt
 90
    32768
280
     0
281
     1
  0
CLASS
  1
ACDMVWEDSPLINE
  2
AcDmViewEdgeSpline
  3
AcMechDwgViewMgmt
 90
    32768
280
     0
281
     1
  0
CLASS
  1
ACDMVWEDCIRC
  2
AcDmViewEdgeCircle
  3
AcMechDwgViewMgmt
 90
    32768
280
     0
281
     1
  0
CLASS
  1
CNRREFID
  2
AcAdCornerId
  3
DesignerServices
 90
    32768
280
     0
281
     0
  0
CLASS
  1
ACADPARTPOINTRES
  2
AcAdPartPointRes
  3
AdGrefServices
 90
    32768
280
     0
281
     0
  0
CLASS
  1
ACADPARTSKETCHPLANEAXISRES
  2
AcAdPartSketchPlaneAxisRes
  3
DesignerServices
 90
    32768
280
     0
281
     0
  0
CLASS
  1
AM_VIEWDIMPARALLEL
  2
AcDmViewDimParallel
  3
AcMechDwgViewMgmt
 90
    32768
280
     0
281
     0
  0
CLASS
  1
AM_ORTHO_VIEW_ORIENT
  2
AcDmOrthoViewOr
  3
AcMechDwgViewMgmt
 90
    32768
280
     0
281
     0
  0
CLASS
  1
AM_ORTHO_VIEW
  2
AcDmOrthoView
  3
AcMechDwgViewMgmt
 90
    32768
280
     0
281
     0
  0
CLASS
  1
ADRADDISP
  2
AcAdRadiusDisplay
  3
DesignerServices
 90
    32768
280
     0
281
     1
  0
CLASS
  1
AM_ISO_VIEW_ORIENT
  2
AcDmIsoViewOr
  3
AcMechDwgViewMgmt
 90
    32768
280
     0
281
     0
  0
CLASS
  1
AM_ISO_VIEW
  2
AcDmIsoView
  3
AcMechDwgViewMgmt
 90
    32768
280
     0
281
     0
  0
CLASS
  1
ACADPARTCIRCEDGRES
  2
AcAdPartCircEdgRes
  3
AdGrefServices
 90
    32768
280
     0
281
     0
  0
CLASS
  1
ACDMVISEDIT
  2
AcDmViewEntityVisEdit
  3
AcMechDwgViewMgmt
 90
    32768
280
     0
281
     0
  0
CLASS
  1
SILEDGEID
  2
AcAdSilhouetteEdgeId
  3
DesignerServices
 90
    32768
280
     0
281
     0
  0
CLASS
  1
ACADPARTSPLINEEDGERES
  2
AcAdPartSplineEdgeRes
  3
AdGrefServices
 90
    32768
280
     0
281
     0
  0
CLASS
  1
AM_FULLPLANESECTION
  2
AcDmFullPlaneSection
  3
AcMechDwgViewMgmt
 90
    32768
280
     0
281
     0
  0
CLASS
  1
AM_SECTIONSYMBOL
  2
AcDmSectionSymbol
  3
AcMechDwgViewMgmt
 90
    32768
280
     0
281
     0
  0
CLASS
  1
AM_VIEWLABEL
  2
AcDmViewLabel
  3
AcMechDwgViewMgmt
 90
    32768
280
     0
281
     0
  0
CLASS
  1
ACDBDICTIONARYWDFLT
  2
AcDbDictionaryWithDefault
  3
ObjectDBX Classes
 90
        0
280
     0
281
     0
  0
CLASS
  1
ACDBPLACEHOLDER
  2
AcDbPlaceHolder
  3
ObjectDBX Classes
 90
        0
280
     0
281
     0
  0
CLASS
  1
LAYOUT
  2
AcDbLayout
  3
ObjectDBX Classes
 90
        0
280
     0
281
     0
  0
CLASS
  1
ACME_DOCUMENT
  2
AcMeDbDoc
  3
AcMeServices
 90
    32768
280
     0
281
     0
  0
CLASS
  1
AMGSETTINGSOBJ
  2
AmgSettingsObj
  3
"AcadM|Product Description: AutoCAD Mechanical 2000|Company: Autodesk"
 90
        0
280
     0
281
     0
  0
CLASS
  1
GSMANAGER
  2
AcMeGSManager
  3
AcMeServices
 90
    32768
280
     0
281
     0
  0
CLASS
  1
AMDTINTERNALREACTOR
  2
AmdtInternalReactor
  3
AcMeServices
 90
        0
280
     0
281
     0
  0
CLASS
  1
ACME_DATABASE
  2
AcMeDbDatabase
  3
AcMeServices
 90
    32768
280
     0
281
     0
  0
CLASS
  1
ACGREFACADMASTER
  2
AcGrefacadMaster
  3
AcGrefServices
 90
    32768
280
     0
281
     0
  0
CLASS
  1
AMDTMENUSTATEMGR
  2
AmdtMenuStateMgr
  3
McadcomServices
 90
    32768
280
     0
281
     0
  0
CLASS
  1
AMDTMCOMMENUSTATE
  2
AmdtMcomMenuState
  3
McadcomServices
 90
    32768
280
     0
281
     0
  0
CLASS
  1
AMDTMAPISURFMOUDULE
  2
AmdtMApiSurfModule
  3
MApiSurfServices
 90
    32768
280
     0
281
     0
  0
CLASS
  1
MAPIAMMOUDLE
  2
MApiAmModule
  3
MApiAmServices
 90
    32768
280
     0
281
     0
  0
CLASS
  1
AMDTADMENUSTATE
  2
AmdtAdMenuState
  3
DesignerServices
 90
    32768
280
     0
281
     0
  0
CLASS
  1
AMDTDMMENUSTATE
  2
AmdtDmMenuState
  3
AcMechDwgViewMgmt
 90
    32768
280
     0
281
     0
  0
CLASS
  1
MAPIADMODULE
  2
MApiAdModule
  3
MApiAdServices
 90
    32768
280
     0
281
     0
  0
CLASS
  1
AMDTAMMENUSTATE
  2
AmdtAmMenuState
  3
DesignerAssemblies
 90
    32768
280
     0
281
     0
  0
CLASS
  1
AMDTBROWSERDBTAB
  2
AmdtBrowserDbTab
  3
McadcomServices
 90
    32768
280
     0
281
     0
  0
CLASS
  1
ACMSTANDARDISO
  2
AcmStandardISO
  3
"Amdt_StdImp|Product Description: AutoCAD Mechanical 2004 DX|Company: Autodesk"
 90
        0
280
     0
281
     0
  0
CLASS
  1
AMGOBJPROPCFG
  2
AmgObjPropCfg
  3
"AmgLay|Product Description: AutoCAD Mechanical 2000|Company: Autodesk"
 90
        1
280
     0
281
     0
  0
CLASS
  1
AMDTEDGESTANDARDISO
  2
AmdtEdgeStdISO
  3
"Amdt_StdImp|Product Description: AutoCAD Mechanical 2004 DX|Company: Autodesk"
 90
        0
280
     0
281
     0
  0
CLASS
  1
ACMSURFSTANDARDISO
  2
AcmSurfTextStdISO
  3
"Amdt_StdImp|Product Description: AutoCAD Mechanical 2004 DX|Company: Autodesk"
 90
        0
280
     0
281
     0
  0
CLASS
  1
ACMFCFSTANDARDISO
  2
AcmFCFStdISO
  3
"Amdt_StdImp|Product Description: AutoCAD Mechanical 2004 DX|Company: Autodesk"
 90
        0
280
     0
281
     0
  0
CLASS
  1
ACMWELDSTANDARDISO
  2
AcmWeldingStdISO
  3
"Amdt_StdImp|Product Description: AutoCAD Mechanical 2004 DX|Company: Autodesk"
 90
        0
280
     0
281
     0
  0
CLASS
  1
ACMIDSTANDARDISO
  2
AcmIdStdISO
  3
"Amdt_StdImp|Product Description: AutoCAD Mechanical 2004 DX|Company: Autodesk"
 90
        0
280
     0
281
     0
  0
CLASS
  1
ACMDATUMSTANDARDISO
  2
AcmDatumStdISO
  3
"Amdt_StdImp|Product Description: AutoCAD Mechanical 2004 DX|Company: Autodesk"
 90
        0
280
     0
281
     0
  0
CLASS
  1
ACMBOMSTANDARDISO
  2
AcmBOMStdISO
  3
"Amdt_StdImp|Product Description: AutoCAD Mechanical 2004 DX|Company: Autodesk"
 90
        0
280
     0
281
     0
  0
CLASS
  1
ACMDETAILSTANDARDISO
  2
AmdtDetailSymStdISO
  3
"Amdt_StdImp|Product Description: AutoCAD Mechanical 2004 DX|Company: Autodesk"
 90
        0
280
     0
281
     0
  0
CLASS
  1
ACMSECTIONSTANDARDISO
  2
AmdtSectionSymStdISO
  3
"Amdt_StdImp|Product Description: AutoCAD Mechanical 2004 DX|Company: Autodesk"
 90
        0
280
     0
281
     0
  0
CLASS
  1
ACMCENTERLINESTANDARDISO
  2
AmdtCenterLineStdISO
  3
"Amdt_StdImp|Product Description: AutoCAD Mechanical 2004 DX|Company: Autodesk"
 90
        0
280
     0
281
     0
  0
CLASS
  1
ACMTHREADLINESTANDARDISO
  2
AmdtThreadLineStdISO
  3
"Amdt_StdImp|Product Description: AutoCAD Mechanical 2004 DX|Company: Autodesk"
 90
        0
280
     0
281
     0
  0
CLASS
  1
ACMNOTESTANDARDISO
  2
AmdtNoteStdISO
  3
"Amdt_StdImp|Product Description: AutoCAD Mechanical 2004 DX|Company: Autodesk"
 90
        0
280
     0
281
     0
  0
CLASS
  1
AMDTNOTETEMPLATEDB
  2
AmdtNoteTemplateDB
  3
AMDT_STDIMP_MODULE_NAME
 90
        0
280
     0
281
     0
  0
CLASS
  1
ACAMGLAYSTD
  2
AcAmgLayStd
  3
"AcAmgLayStd|Product Description: AutoCAD Mechanical 2000|Company: Autodesk"
 90
        0
280
     0
281
     0
  0
CLASS
  1
ACAMGDIMSTD
  2
AcAmgDimStd
  3
"AcAmgDimStd|Product Description: AutoCAD Mechanical 2000|Company: Autodesk"
 90
        0
280
     0
281
     0
  0
CLASS
  1
ACAMGHOLECHARTSTDISO
  2
AcAmgHoleChartStdISO
  3
ACMSYMBB_MODULE_NAME
 90
        0
280
     0
281
     0
  0
CLASS
  1
ACAMGTITLESTD
  2
AcAmgTitleStd
  3
"TITLEAPP"
 90
        0
280
     0
281
     0
  0
CLASS
  1
ACAMGFILTERDAT
  2
AcAmgFilterDat
  3
"AcadM|Product Description: AutoCAD Mechanical 2000|Company: Autodesk"
 90
    32768
280
     0
281
     0
  0
ENDSEC
  0
SECTION
  2
TABLES
  0
TABLE
  2
VPORT
  5
1A
330
0
100
AcDbSymbolTable
 70
     1
  0
VPORT
  5
1B
330
1A
100
AcDbSymbolTableRecord
100
AcDbViewportTableRecord
  2
*Active
 70
     0
 10
0.0
 20
0.0
 11
1.0
 21
1.0
 12
-19.85159399028612
 22
672.84593361988
 13
0.0
 23
0.0
 14
10.0
 24
10.0
 15
10.0
 25
10.0
 16
0.0
 26
0.0
 36
1.0
 17
0.0
 27
0.0
 37
0.0
 40
321.2084141131486
 41
2.231884057971014
 42
50.0
 43
0.0
 44
0.0
 50
0.0
 51
0.0
 71
     0
 72
 18000
 73
     1
 74
     0
 75
     0
 76
     0
 77
     0
 78
     0
281
     0
 65
     1
110
0.0
120
0.0
130
0.0
111
1.0
121
0.0
131
0.0
112
0.0
122
1.0
132
0.0
 79
     0
146
0.0
  0
ENDTAB
  0
TABLE
  2
LTYPE
  5
15
330
0
100
AcDbSymbolTable
 70
    14
  0
LTYPE
  5
16
330
15
100
AcDbSymbolTableRecord
100
AcDbLinetypeTableRecord
  2
BYBLOCK
 70
     0
  3

 72
    65
 73
     0
 40
0.0
  0
LTYPE
  5
17
330
15
100
AcDbSymbolTableRecord
100
AcDbLinetypeTableRecord
  2
BYLAYER
 70
     0
  3

 72
    65
 73
     0
 40
0.0
  0
LTYPE
  5
9
330
15
100
AcDbSymbolTableRecord
100
AcDbLinetypeTableRecord
  2
CONTINUOUS
 70
     0
  3
Solid line
 72
    65
 73
     0
 40
0.0
  0
LTYPE
  5
2B
330
15
100
AcDbSymbolTableRecord
100
AcDbLinetypeTableRecord
  2
HIDDEN
 70
     0
  3
Hidden __ __ __ __ __ __ __ __ __ __ __ __ __ _
 72
    65
 73
     2
 40
9.524999999999998
 49
6.349999999999999
 74
     0
 49
-3.174999999999999
 74
     0
  0
LTYPE
  5
34
330
15
100
AcDbSymbolTableRecord
100
AcDbLinetypeTableRecord
  2
CENTER
 70
     0
  3
Center ____ _ ____ _ ____ _ ____ _ ____ _ ____
 72
    65
 73
     4
 40
50.8
 49
31.75
 74
     0
 49
-6.349999999999999
 74
     0
 49
6.349999999999999
 74
     0
 49
-6.349999999999999
 74
     0
  0
LTYPE
  5
360
330
15
100
AcDbSymbolTableRecord
100
AcDbLinetypeTableRecord
  2
AM_ISO02W050
 70
     0
  3
__ __ __ __ __ __ __ __ __ __ __ __ __ __ __
 72
    65
 73
     2
 40
7.5
 49
6.0
 74
     0
 49
-1.5
 74
     0
  0
LTYPE
  5
361
330
15
100
AcDbSymbolTableRecord
100
AcDbLinetypeTableRecord
  2
AM_ISO08W050
 70
     0
  3
____ . ____ . ____ . ____ . ____ . ____ . ____
 72
    65
 73
     4
 40
18.0
 49
12.0
 74
     0
 49
-1.5
 74
     0
 49
3.0
 74
     0
 49
-1.5
 74
     0
  0
LTYPE
  5
362
330
15
100
AcDbSymbolTableRecord
100
AcDbLinetypeTableRecord
  2
AM_ISO09W050
 70
     0
  3
_____ . . _____ . . _____ . . ____ .. ____
 72
    65
 73
     6
 40
22.5
 49
12.0
 74
     0
 49
-1.5
 74
     0
 49
3.0
 74
     0
 49
-1.5
 74
     0
 49
3.0
 74
     0
 49
-1.5
 74
     0
  0
LTYPE
  5
363
330
15
100
AcDbSymbolTableRecord
100
AcDbLinetypeTableRecord
  2
Amconstr
 70
     0
  3
_______________________
 72
    65
 73
     2
 40
9999.0
 49
9999.0
 74
     0
 49
0.0
 74
     0
  0
LTYPE
  5
364
330
15
100
AcDbSymbolTableRecord
100
AcDbLinetypeTableRecord
  2
AM_ISO08W050x2
 70
     0
  3
__ . __ . __ . __ . __ . __
 72
    65
 73
     4
 40
9.0
 49
6.0
 74
     0
 49
-0.75
 74
     0
 49
1.5
 74
     0
 49
-0.75
 74
     0
  0
LTYPE
  5
365
330
15
100
AcDbSymbolTableRecord
100
AcDbLinetypeTableRecord
  2
AM_ISO02W050x2
 70
     0
  3
 _ _ _ _ _ _ _ _ _ _ _ _
 72
    65
 73
     2
 40
3.75
 49
3.0
 74
     0
 49
-0.75
 74
     0
  0
LTYPE
  5
366
330
15
100
AcDbSymbolTableRecord
100
AcDbLinetypeTableRecord
  2
Amzigzag
 70
     0
  3
/\/-/\/-/\/-/\/-/\/-/\/
 72
    65
 73
     2
 40
11.0001
 49
0.0001
 74
     4
 75
   135
340
367
 46
0.04
 50
0.0
 44
0.0
 45
0.0
 49
-11.0
 74
     0
  0
LTYPE
  5
377
330
15
100
AcDbSymbolTableRecord
100
AcDbLinetypeTableRecord
  2
ACISOWELD
 70
     0
  3
_ _ _ _ _
 72
    65
 73
     2
 40
2.0
 49
2.0
 74
     0
 49
-1.0
 74
     0
  0
LTYPE
  5
37A
330
15
100
AcDbSymbolTableRecord
100
AcDbLinetypeTableRecord
  2
ACISOTGB
 70
     0
  3
__ . . __ . .
 72
    65
 73
     6
 40
9.0
 49
4.0
 74
     0
 49
-1.0
 74
     0
 49
1.0
 74
     0
 49
-1.0
 74
     0
 49
1.0
 74
     0
 49
-1.0
 74
     0
  0
LTYPE
  5
37B
330
15
100
AcDbSymbolTableRecord
100
AcDbLinetypeTableRecord
  2
ACISOTGL
 70
     0
  3
_ _ _ _ _
 72
    65
 73
     2
 40
3.0
 49
2.0
 74
     0
 49
-1.0
 74
     0
  0
LTYPE
  5
3C8
330
15
100
AcDbSymbolTableRecord
100
AcDbLinetypeTableRecord
  2
PHANTOM2
 70
     0
  3
Phantom (.5x) ___ _ _ ___ _ _ ___ _ _ ___ _ _
 72
    65
 73
     6
 40
31.75
 49
15.875
 74
     0
 49
-3.174999999999999
 74
     0
 49
3.174999999999999
 74
     0
 49
-3.174999999999999
 74
     0
 49
3.174999999999999
 74
     0
 49
-3.174999999999999
 74
     0
  0
ENDTAB
  0
TABLE
  2
LAYER
  5
11
330
0
100
AcDbSymbolTable
 70
     6
  0
LAYER
  5
5
330
11
100
AcDbSymbolTableRecord
100
AcDbLayerTableRecord
  2
0
 70
     0
 62
     7
  6
CONTINUOUS
370
    -3
390
6
  0
LAYER
  5
30
330
11
100
AcDbSymbolTableRecord
100
AcDbLayerTableRecord
  2
AM_VIS
 70
     0
 62
     7
  6
CONTINUOUS
370
    -3
390
6
  0
LAYER
  5
3B
330
11
100
AcDbSymbolTableRecord
100
AcDbLayerTableRecord
  2
AM_HID
 70
     0
 62
     1
  6
HIDDEN
370
    -3
390
6
  0
LAYER
  5
25
330
11
100
AcDbSymbolTableRecord
100
AcDbLayerTableRecord
  2
4
 70
     0
 62
     4
  6
CONTINUOUS
370
    -3
390
6
  0
LAYER
  5
2A
330
11
100
AcDbSymbolTableRecord
100
AcDbLayerTableRecord
  2
1
 70
     0
 62
     1
  6
HIDDEN
370
    -3
390
6
  0
LAYER
  5
33
330
11
100
AcDbSymbolTableRecord
100
AcDbLayerTableRecord
  2
2
 70
     0
 62
     7
  6
CENTER
370
    -3
390
6
  0
ENDTAB
  0
TABLE
  2
STYLE
  5
12
330
0
100
AcDbSymbolTable
 70
     4
  0
STYLE
  5
13
330
12
100
AcDbSymbolTableRecord
100
AcDbTextStyleTableRecord
  2
STANDARD
 70
     0
 40
0.0
 41
1.0
 50
0.0
 71
     0
 42
3.2
  3
isocp.shx
  4

  0
STYLE
  5
367
330
12
100
AcDbSymbolTableRecord
100
AcDbTextStyleTableRecord
  2

 70
     1
 40
0.0
 41
1.0
 50
0.0
 71
     0
 42
3.2
  3
ltypeshp.shx
  4

  0
STYLE
  5
371
330
12
100
AcDbSymbolTableRecord
100
AcDbTextStyleTableRecord
  2
ACISOTS
 70
     0
 40
1.0
 41
1.0
 50
0.0
 71
     0
 42
3.2
  3
isocp.shx
  4

  0
STYLE
  5
375
330
12
100
AcDbSymbolTableRecord
100
AcDbTextStyleTableRecord
  2
ACISOGDT
 70
     0
 40
0.0
 41
1.0
 50
0.0
 71
     0
 42
3.2
  3
amgdt.shx
  4

  0
ENDTAB
  0
TABLE
  2
VIEW
  5
18
330
0
100
AcDbSymbolTable
 70
     0
  0
ENDTAB
  0
TABLE
  2
UCS
  5
19
330
0
100
AcDbSymbolTable
 70
     0
  0
ENDTAB
  0
TABLE
  2
APPID
  5
1C
330
0
100
AcDbSymbolTable
 70
     1
  0
APPID
  5
1D
330
1C
100
AcDbSymbolTableRecord
100
AcDbRegAppTableRecord
  2
ACAD
 70
     0
  0
ENDTAB
  0
TABLE
  2
DIMSTYLE
  5
1E
330
0
100
AcDbSymbolTable
 70
     8
100
AcDbDimStyleTable
 71
     0
  0
DIMSTYLE
105
27
330
1E
100
AcDbSymbolTableRecord
100
AcDbDimStyleTableRecord
  2
STANDARD
 70
     0
340
13
  0
DIMSTYLE
105
388
330
1E
100
AcDbSymbolTableRecord
100
AcDbDimStyleTableRecord
  2
AM_ISO
 70
     0
  4
"
 41
2.5
 42
1.0
 43
10.0
 44
1.0
 47
0.1
 48
0.1
 73
     0
 74
     0
 77
     1
 78
     8
 79
     2
140
3.5
141
0.0
143
0.0393701
146
0.71
147
1.5
172
     1
176
   256
177
   256
178
     2
271
     2
272
     3
274
     4
283
     0
284
     8
340
13
371
    -1
372
    -1
  0
DIMSTYLE
105
389
330
1E
100
AcDbSymbolTableRecord
100
AcDbDimStyleTableRecord
  2
AM_ISO$3
 70
     0
  4
"
 41
2.5
 42
1.0
 43
10.0
 44
1.0
 47
0.1
 48
0.1
 73
     0
 77
     1
 78
     8
 79
     2
140
3.5
141
0.0
143
0.0393701
146
0.71
147
1.5
176
   256
177
   256
178
     2
271
     2
272
     3
274
     4
283
     0
284
     8
288
     1
289
     0
340
13
371
    -1
372
    -1
  0
DIMSTYLE
105
38A
330
1E
100
AcDbSymbolTableRecord
100
AcDbDimStyleTableRecord
  2
AM_ISO$4
 70
     0
  4
"
 41
2.5
 42
1.0
 43
10.0
 44
1.0
 47
0.1
 48
0.1
 73
     0
 77
     1
 78
     8
 79
     2
140
3.5
141
0.0
143
0.0393701
146
0.71
147
1.5
176
   256
177
   256
178
     2
271
     2
272
     3
274
     4
283
     0
284
     8
288
     1
289
     0
340
13
371
    -1
372
    -1
  0
DIMSTYLE
105
38B
330
1E
100
AcDbSymbolTableRecord
100
AcDbDimStyleTableRecord
  2
AM_ISO$6
 70
     0
  4
"
 41
2.5
 42
1.0
 43
10.0
 44
1.0
 47
0.1
 48
0.1
 73
     0
 74
     0
 78
     8
 79
     2
140
3.5
141
0.0
143
0.0393701
146
0.71
147
1.5
172
     1
176
   256
177
   256
178
     2
271
     2
272
     3
274
     4
283
     0
284
     8
340
13
371
    -1
372
    -1
  0
DIMSTYLE
105
38C
330
1E
100
AcDbSymbolTableRecord
100
AcDbDimStyleTableRecord
  2
AM_ISO$7
 70
     0
  4
"
 41
2.5
 42
1.0
 43
10.0
 44
1.0
 47
0.1
 48
0.1
 73
     0
 74
     0
 77
     1
 78
     8
 79
     2
140
5.0
141
0.0
143
0.0393701
146
0.71
147
1.5
172
     1
176
   256
177
   256
178
     2
271
     2
272
     3
274
     4
283
     0
284
     8
340
13
371
    -1
372
    -1
  0
DIMSTYLE
105
38D
330
1E
100
AcDbSymbolTableRecord
100
AcDbDimStyleTableRecord
  2
AM_ISO$SF
 70
     0
  4
"
 41
2.5
 42
1.0
 43
10.0
 44
1.0
 47
0.1
 48
0.1
 73
     0
 74
     0
 75
     1
 76
     1
 77
     1
 78
     8
 79
     2
140
3.5
141
0.0
143
0.0393701
146
0.71
147
1.5
172
     1
176
   256
177
   256
178
     2
271
     2
272
     3
274
     4
283
     0
284
     8
340
13
371
    -1
372
    -1
  0
DIMSTYLE
105
38E
330
1E
100
AcDbSymbolTableRecord
100
AcDbDimStyleTableRecord
  2
AM_ISO$SH
 70
     0
  4
"
 41
2.5
 42
1.0
 43
10.0
 44
1.0
 47
0.1
 48
0.1
 73
     0
 74
     0
 75
     1
 76
     1
 77
     1
 78
     8
 79
     2
140
3.5
141
0.0
143
0.0393701
144
2.0
146
0.71
147
1.5
172
     1
173
     1
176
   256
177
   256
178
     2
271
     2
272
     3
274
     4
283
     0
284
     8
340
13
343
38F
371
    -1
372
    -1
  0
ENDTAB
  0
TABLE
  2
BLOCK_RECORD
  5
1
330
0
100
AcDbSymbolTable
 70
     1
  0
BLOCK_RECORD
  5
2
102
{ACAD_XDICTIONARY
360
3
102
}
330
1
100
AcDbSymbolTableRecord
100
AcDbBlockTableRecord
  2
*MODEL_SPACE
340
B
  0
BLOCK_RECORD
  5
D
330
1
100
AcDbSymbolTableRecord
100
AcDbBlockTableRecord
  2
*PAPER_SPACE
340
10
  0
BLOCK_RECORD
  5
38F
330
1
100
AcDbSymbolTableRecord
100
AcDbBlockTableRecord
  2
GENAXEH
340
0
  0
ENDTAB
  0
ENDSEC
  0
SECTION
  2
BLOCKS
  0
BLOCK
  5
4
330
2
100
AcDbEntity
  8
0
100
AcDbBlockBegin
  2
*MODEL_SPACE
 70
     0
 10
0.0
 20
0.0
 30
0.0
  3
*MODEL_SPACE
  1

  0
ENDBLK
  5
A
330
2
100
AcDbEntity
  8
0
100
AcDbBlockEnd
  0
BLOCK
  5
E
330
D
100
AcDbEntity
 67
     1
  8
0
100
AcDbBlockBegin
  2
*PAPER_SPACE
 70
     0
 10
0.0
 20
0.0
 30
0.0
  3
*PAPER_SPACE
  1

  0
ENDBLK
  5
F
330
D
100
AcDbEntity
 67
     1
  8
0
100
AcDbBlockEnd
  0
BLOCK
  5
390
330
38F
100
AcDbEntity
  8
0
100
AcDbBlockBegin
  2
GENAXEH
 70
     0
 10
0.0
 20
0.0
 30
0.0
  3
GENAXEH
  1

  0
LINE
  5
391
330
38F
100
AcDbEntity
  8
0
100
AcDbLine
 10
-1.0
 20
0.0
 30
0.0
 11
1.0
 21
0.0
 31
0.0
  0
ENDBLK
  5
392
330
38F
100
AcDbEntity
  8
0
100
AcDbBlockEnd
  0
ENDSEC
  0
SECTION
  2
ENTITIES
  0
LWPOLYLINE
  5
28
330
2
100
AcDbEntity
  8
4
100
AcDbPolyline
 90
        4
 70
     1
 43
0.0
 10
-163.4641530016861
 20
575.8444776501782
 10
64.45537510139366
 20
575.8444776501782
 10
64.45537510139366
 20
744.2901201592981
 10
-163.4641530016861
 20
744.2901201592981
  0
LINE
  5
29
330
2
100
AcDbEntity
  8
1
100
AcDbLine
 10
-140.7835564455115
 20
701.7756797276874
 30
0.0
 11
-140.7835564455115
 21
587.852362041746
 31
0.0
  0
LINE
  5
2C
330
2
100
AcDbEntity
  8
1
100
AcDbLine
 10
-129.5835564446706
 20
690.8140208713769
 30
0.0
 11
-129.5835564446706
 21
699.1640208689553
 31
0.0
  0
LINE
  5
2D
330
2
100
AcDbEntity
  8
1
100
AcDbLine
 10
-139.6835564417415
 20
690.8146208713768
 30
0.0
 11
-139.6835564417415
 21
692.2860126134485
 31
0.0
  0
LINE
  5
2E
330
2
100
AcDbEntity
  8
1
100
AcDbLine
 10
-139.6835564417414
 20
700.0543159819759
 30
0.0
 11
-139.6835564417415
 21
686.3140208726818
 31
0.0
  0
LINE
  5
2F
330
2
100
AcDbEntity
  8
AM_VIS
100
AcDbLine
 10
-126.6835564455116
 20
690.8140208713766
 30
0.0
 11
-126.6835564455116
 21
699.1640208689553
 31
0.0
  0
LINE
  5
31
330
2
100
AcDbEntity
  8
AM_VIS
100
AcDbLine
 10
-141.6835564455116
 20
703.1281489987057
 30
0.0
 11
-141.6835564455116
 21
586.4998927707278
 31
0.0
  0
LINE
  5
32
330
2
100
AcDbEntity
  8
2
100
AcDbLine
 10
-24.37157113372155
 20
704.864020867302
 30
0.0
 11
-24.37157113372172
 21
584.764020902131
 31
0.0
  0
LINE
  5
35
330
2
100
AcDbEntity
  8
AM_VIS
100
AcDbLine
 10
-98.07037826940684
 20
699.7810274047459
 30
0.0
 11
-98.07037826940689
 21
589.8470143678915
 31
0.0
  0
LWPOLYLINE
  5
36
330
2
100
AcDbEntity
  8
AM_VIS
100
AcDbPolyline
 90
       98
 70
     0
 43
0.0
 10
-107.3275529584865
 20
592.5633307731316
 10
-107.3259264574025
 20
593.6379900004884
 10
-107.3243337593873
 20
594.7128163101463
 10
-107.3227748696405
 20
595.7878061929534
 10
-107.3212497932521
 20
596.8629561392242
 10
-107.319758535201
 20
597.9382626387502
 10
-107.3183011003561
 20
599.0137221808122
 10
-107.3168774934754
 20
600.0893312541913
 10
-107.3154877192071
 20
601.1650863471799
 10
-107.3141317820884
 20
602.2409839475942
 10
-107.3128096865462
 20
603.3170205427849
 10
-107.3115214368972
 20
604.3931926196489
 10
-107.3102670373472
 20
605.4694966646409
 10
-107.3090464919917
 20
606.5459291637846
 10
-107.3078598048153
 20
607.6224866026847
 10
-107.3067069796927
 20
608.6991654665371
 10
-107.3055880203877
 20
609.7759622401422
 10
-107.3045029305535
 20
610.852873407915
 10
-107.3034517137326
 20
611.9298954538971
 10
-107.3024343733572
 20
613.0070248617681
 10
-107.3014509127487
 20
614.0842581148572
 10
-107.3005013351181
 20
615.1615916961542
 10
-107.2995856435652
 20
616.2390220883215
 10
-107.2987038410803
 20
617.3165457737061
 10
-107.2978559305418
 20
618.3941592343491
 10
-107.2970419147184
 20
619.4718589519996
 10
-107.2962617962674
 20
620.5496414081246
 10
-107.2955155777359
 20
621.6275030839211
 10
-107.2948032615602
 20
622.7054404603274
 10
-107.294124850066
 20
623.7834500180346
 10
-107.2934803454682
 20
624.8615282374985
 10
-107.2928697498707
 20
625.9396715989502
 10
-107.2922930652674
 20
627.0178765824082
 10
-107.2917502935409
 20
628.0961396676903
 10
-107.2912414364634
 20
629.174457334424
 10
-107.2907664956961
 20
630.2528260620593
 10
-107.2903254727896
 20
631.3312423298788
 10
-107.289918369184
 20
632.4097026170099
 10
-107.2895451862083
 20
633.4882034024372
 10
-107.2892059250806
 20
634.5667411650118
 10
-107.2889005869089
 20
635.645312383465
 10
-107.2886291726901
 20
636.7239135364187
 10
-107.2883916833102
 20
637.8025411023965
 10
-107.2881881195446
 20
638.8811915598364
 10
-107.2880184820578
 20
639.9598613871019
 10
-107.2878827714037
 20
641.0385470624921
 10
-107.2877809880256
 20
642.1172450642558
 10
-107.2877131322555
 20
643.1959518706003
 10
-107.2876792043151
 20
644.2746639597049
 10
-107.2876792043151
 20
645.3533778097316
 10
-107.2877131322555
 20
646.4320898988362
 10
-107.2877809880256
 20
647.5107967051809
 10
-107.2878827714037
 20
648.5894947069444
 10
-107.2880184820577
 20
649.6681803823348
 10
-107.2881881195445
 20
650.7468502096001
 10
-107.2883916833102
 20
651.8255006670401
 10
-107.2886291726902
 20
652.9041282330181
 10
-107.288900586909
 20
653.9827293859716
 10
-107.2892059250805
 20
655.0613006044248
 10
-107.2895451862082
 20
656.1398383669994
 10
-107.289918369184
 20
657.2183391524267
 10
-107.2903254727896
 20
658.296799439558
 10
-107.2907664956961
 20
659.3752157073772
 10
-107.2912414364634
 20
660.4535844350124
 10
-107.291750293541
 20
661.5319021017462
 10
-107.2922930652673
 20
662.6101651870284
 10
-107.2928697498708
 20
663.6883701704865
 10
-107.2934803454681
 20
664.7665135319382
 10
-107.294124850066
 20
665.8445917514019
 10
-107.2948032615603
 20
666.9226013091092
 10
-107.2955155777359
 20
668.0005386855155
 10
-107.2962617962675
 20
669.078400361312
 10
-107.2970419147184
 20
670.1561828174369
 10
-107.297855930542
 20
671.2338825350875
 10
-107.2987038410804
 20
672.3114959957306
 10
-107.2995856435654
 20
673.3890196811148
 10
-107.300501335118
 20
674.4664500732824
 10
-107.3014509127487
 20
675.5437836545794
 10
-107.3024343733572
 20
676.6210169076685
 10
-107.3034517137327
 20
677.6981463155394
 10
-107.3045029305535
 20
678.7751683615216
 10
-107.3055880203878
 20
679.8520795292944
 10
-107.3067069796929
 20
680.9288763028996
 10
-107.3078598048154
 20
682.005555166752
 10
-107.3090464919916
 20
683.0821126056519
 10
-107.3102670373474
 20
684.1585451047957
 10
-107.3115214368974
 20
685.2348491497877
 10
-107.3128096865463
 20
686.3110212266517
 10
-107.3141317820885
 20
687.3870578218425
 10
-107.3154877192073
 20
688.4629554222567
 10
-107.3168774934756
 20
689.5387105152454
 10
-107.3183011003562
 20
690.6143195886243
 10
-107.3197585352013
 20
691.6897791306864
 10
-107.3212497932523
 20
692.7650856302125
 10
-107.3227748696407
 20
693.8402355764833
 10
-107.3243337593875
 20
694.9152254592904
 10
-107.3259264574026
 20
695.9900517689482
 10
-107.3275529584865
 20
697.064710996305
  0
LWPOLYLINE
  5
37
330
2
100
AcDbEntity
  8
AM_VIS
100
AcDbPolyline
 90
      101
 70
     0
 43
0.0
 10
-108.9799564090355
 20
698.6233199980575
 10
-108.9782732165252
 20
697.5499865297358
 10
-108.9766239395957
 20
696.476480269715
 10
-108.9750085836511
 20
695.4028047353851
 10
-108.9734271539843
 20
694.3289634446913
 10
-108.9718796557766
 20
693.2549599161214
 10
-108.9703660940988
 20
692.1807976686949
 10
-108.96888647391
 20
691.1064802219516
 10
-108.967440800058
 20
690.0320110959397
 10
-108.96602907728
 20
688.9573938112039
 10
-108.9646513102013
 20
687.882631888775
 10
-108.9633075033364
 20
686.8077288501576
 10
-108.9619976610884
 20
685.7326882173184
 10
-108.9607217877487
 20
684.657513512675
 10
-108.9594798874981
 20
683.5822082590847
 10
-108.9582719644056
 20
682.5067759798318
 10
-108.9570980224289
 20
681.4312201986173
 10
-108.9559580654147
 20
680.3555444395469
 10
-108.954852097098
 20
679.2797522271193
 10
-108.9537801211027
 20
678.203847086215
 10
-108.952742140941
 20
677.1278325420838
 10
-108.9517381600139
 20
676.0517121203346
 10
-108.9507681816109
 20
674.9754893469233
 10
-108.9498322089104
 20
673.8991677481406
 10
-108.9489302449791
 20
672.8227508506015
 10
-108.9480622927722
 20
671.746242181233
 10
-108.9472283551337
 20
670.6696452672629
 10
-108.946428434796
 20
669.5929636362079
 10
-108.9456625343801
 20
668.5162008158628
 10
-108.9449306563954
 20
667.4393603342879
 10
-108.9442328032401
 20
666.3624457197983
 10
-108.9435689772006
 20
665.2854605009517
 10
-108.942939180452
 20
664.2084082065374
 10
-108.9423434150578
 20
663.1312923655643
 10
-108.9417816829703
 20
662.0541165072496
 10
-108.9412539860298
 20
660.9768841610073
 10
-108.9407603259653
 20
659.8995988564361
 10
-108.9403007043943
 20
658.8222641233087
 10
-108.9398751228231
 20
657.7448834915592
 10
-108.9394835826457
 20
656.6674604912724
 10
-108.9391260851452
 20
655.589998652672
 10
-108.9388026314931
 20
654.5125015061091
 10
-108.9385132227487
 20
653.43497258205
 10
-108.9382578598608
 20
652.3574154110654
 10
-108.938036543666
 20
651.2798335238185
 10
-108.9378492748893
 20
650.2022304510537
 10
-108.9376960541444
 20
649.1246097235842
 10
-108.9375768819333
 20
648.046974872282
 10
-108.9374917586464
 20
646.9693294280643
 10
-108.9374406845626
 20
645.8916769218841
 10
-108.9374236598495
 20
644.8140208847166
 10
-108.9374406845626
 20
643.7363648475491
 10
-108.9374917586464
 20
642.6587123413687
 10
-108.9375768819333
 20
641.5810668971512
 10
-108.9376960541444
 20
640.5034320458489
 10
-108.9378492748893
 20
639.4258113183796
 10
-108.938036543666
 20
638.3482082456146
 10
-108.9382578598609
 20
637.2706263583678
 10
-108.9385132227488
 20
636.1930691873831
 10
-108.938802631493
 20
635.1155402633239
 10
-108.9391260851451
 20
634.0380431167609
 10
-108.9394835826458
 20
632.9605812781608
 10
-108.939875122823
 20
631.883158277874
 10
-108.9403007043944
 20
630.8057776461246
 10
-108.9407603259653
 20
629.728442912997
 10
-108.9412539860298
 20
628.6511576084259
 10
-108.9417816829702
 20
627.5739252621836
 10
-108.9423434150578
 20
626.4967494038688
 10
-108.9429391804519
 20
625.4196335628957
 10
-108.9435689772007
 20
624.3425812684814
 10
-108.94423280324
 20
623.2655960496349
 10
-108.9449306563954
 20
622.1886814351453
 10
-108.94566253438
 20
621.1118409535704
 10
-108.946428434796
 20
620.0350781332253
 10
-108.9472283551337
 20
618.9583965021704
 10
-108.9480622927722
 20
617.8817995882002
 10
-108.9489302449792
 20
616.8052909188318
 10
-108.9498322089103
 20
615.7288740212925
 10
-108.9507681816109
 20
614.65255242251
 10
-108.9517381600137
 20
613.5763296490986
 10
-108.9527421409408
 20
612.5002092273494
 10
-108.9537801211027
 20
611.4241946832184
 10
-108.954852097098
 20
610.3482895423137
 10
-108.9559580654146
 20
609.2724973298864
 10
-108.9570980224289
 20
608.1968215708159
 10
-108.9582719644055
 20
607.1212657896015
 10
-108.9594798874979
 20
606.0458335103486
 10
-108.9607217877486
 20
604.9705282567581
 10
-108.9619976610884
 20
603.8953535521149
 10
-108.9633075033364
 20
602.8203129192755
 10
-108.9646513102012
 20
601.7454098806581
 10
-108.9660290772799
 20
600.6706479582293
 10
-108.9674408000579
 20
599.5960306734936
 10
-108.9688864739098
 20
598.5215615474815
 10
-108.9703660940986
 20
597.4472441007383
 10
-108.9718796557766
 20
596.3730818533118
 10
-108.9734271539841
 20
595.2990783247419
 10
-108.975008583651
 20
594.225237034048
 10
-108.9766239395956
 20
593.1515614997183
 10
-108.978273216525
 20
592.0780552396974
 10
-108.9799564090353
 20
591.0047217713756
  0
LINE
  5
38
330
2
100
AcDbEntity
  8
AM_VIS
100
AcDbLine
 10
48.92962168796316
 20
589.8470143678913
 30
0.0
 11
48.92962168796316
 21
699.781027404746
 31
0.0
  0
LINE
  5
39
330
2
100
AcDbEntity
  8
AM_VIS
100
AcDbLine
 10
-109.221571109115
 20
590.7631070713298
 30
0.0
 11
-109.2215711091152
 21
698.8649346981035
 31
0.0
  0
LINE
  5
3A
330
2
100
AcDbEntity
  8
AM_HID
100
AcDbLine
 10
-108.058121828168
 20
686.6250183078189
 30
0.0
 11
-108.058121828168
 21
692.2860126134484
 31
0.0
  0
LINE
  5
3C
330
2
100
AcDbEntity
  8
AM_HID
100
AcDbLine
 10
-108.1715711094149
 20
696.0644055079935
 30
0.0
 11
-108.1715711094149
 21
686.6250183078189
 31
0.0
  0
LWPOLYLINE
  5
3D
330
2
100
AcDbEntity
  8
AM_HID
100
AcDbPolyline
 90
       89
 70
     0
 43
0.0
 10
-95.11704824765127
 20
699.2098085690258
 10
-95.11697221095648
 20
699.1149000309353
 10
-95.11689630704546
 20
699.0199900948823
 10
-95.11682053592039
 20
698.9250787633104
 10
-95.11674489758325
 20
698.8301660386627
 10
-95.11666939203582
 20
698.7352519233832
 10
-95.11659401928017
 20
698.640336419915
 10
-95.11651877931791
 20
698.5454195307019
 10
-95.11644367215167
 20
698.4505012581876
 10
-95.11636869778271
 20
698.3555816048156
 10
-95.11629385621308
 20
698.2606605730294
 10
-95.11621914744495
 20
698.1657381652731
 10
-95.11614457148022
 20
698.0708143839901
 10
-95.11607012832071
 20
697.9758892316247
 10
-95.11599581796815
 20
697.8809627106202
 10
-95.11592164042486
 20
697.7860348234206
 10
-95.11584759569235
 20
697.6911055724699
 10
-95.11577368377288
 20
697.596174960212
 10
-95.11569990466814
 20
697.5012429890908
 10
-95.11562625837996
 20
697.4063096615502
 10
-95.11555274491042
 20
697.3113749800347
 10
-95.11547936426138
 20
697.2164389469878
 10
-95.11540611643477
 20
697.121501564854
 10
-95.11533300143225
 20
697.0265628360773
 10
-95.11526001925592
 20
696.9316227631017
 10
-95.11518716990753
 20
696.8366813483717
 10
-95.11511445338902
 20
696.7417385943313
 10
-95.11504186970233
 20
696.6467945034248
 10
-95.11496941884928
 20
696.5518490780969
 10
-95.11489710083152
 20
696.4569023207914
 10
-95.11482491565123
 20
696.3619542339531
 10
-95.11475286331029
 20
696.2670048200261
 10
-95.11468094381019
 20
696.172054081455
 10
-95.11460915715304
 20
696.0771020206845
 10
-95.11453750334073
 20
695.9821486401587
 10
-95.11446598237478
 20
695.8871939423223
 10
-95.11439459425748
 20
695.7922379296199
 10
-95.11432333899046
 20
695.6972806044961
 10
-95.11425221657555
 20
695.6023219693959
 10
-95.11418122701446
 20
695.5073620267635
 10
-95.11411037030928
 20
695.4124007790437
 10
-95.11403964646166
 20
695.3174382286816
 10
-95.11396905547348
 20
695.2224743781216
 10
-95.11389859734647
 20
695.1275092298085
 10
-95.11382827208251
 20
695.0325427861876
 10
-95.11375807968358
 20
694.9375750497033
 10
-95.11368802015107
 20
694.8426060228009
 10
-95.11361809348711
 20
694.7476357079251
 10
-95.11354829969343
 20
694.6526641075211
 10
-95.11347863877189
 20
694.5576912240335
 10
-95.11340911072409
 20
694.4627170599078
 10
-95.11333971555206
 20
694.3677416175888
 10
-95.11327045325732
 20
694.2727648995218
 10
-95.11320132384197
 20
694.1777869081521
 10
-95.11313232730755
 20
694.0828076459244
 10
-95.1130634636558
 20
693.9878271152842
 10
-95.11299473288875
 20
693.892845318677
 10
-95.1129261350079
 20
693.7978622585478
 10
-95.11285767001515
 20
693.7028779373417
 10
-95.11278933791237
 20
693.6078923575045
 10
-95.11272113870125
 20
693.5129055214813
 10
-95.11265307238335
 20
693.4179174317176
 10
-95.11258513896041
 20
693.3229280906587
 10
-95.11251733843455
 20
693.2279375007505
 10
-95.11244967080722
 20
693.1329456644379
 10
-95.11238213608027
 20
693.037952584167
 10
-95.11231473425539
 20
692.9429582623829
 10
-95.11224746533441
 20
692.8479627015316
 10
-95.11218032931884
 20
692.7529659040585
 10
-95.11211332621064
 20
692.6579678724094
 10
-95.11204645601139
 20
692.5629686090299
 10
-95.11197971872304
 20
692.4679681163657
 10
-95.11191311434691
 20
692.3729663968627
 10
-95.1118466428851
 20
692.2779634529665
 10
-95.11178030433915
 20
692.1829592871232
 10
-95.11171409871082
 20
692.0879539017785
 10
-95.11164802600172
 20
691.9929472993783
 10
-95.11158208621361
 20
691.8979394823685
 10
-95.11151627934816
 20
691.8029304531951
 10
-95.11145060540707
 20
691.7079202143041
 10
-95.11138506439214
 20
691.6129087681412
 10
-95.11131965630488
 20
691.5178961171532
 10
-95.11125438114715
 20
691.4228822637852
 10
-95.11118923892047
 20
691.3278672104842
 10
-95.11112422962662
 20
691.2328509596957
 10
-95.11105935326725
 20
691.1378335138663
 10
-95.110994609844
 20
691.0428148754419
 10
-95.11092999935858
 20
690.9477950468688
 10
-95.11086552181263
 20
690.8527740305933
  0
LWPOLYLINE
  5
3E
330
2
100
AcDbEntity
  8
AM_HID
100
AcDbPolyline
 90
       89
 70
     0
 43
0.0
 10
-95.61084648319974
 20
690.8140208713781
 10
-95.6109109607458
 20
690.9089619036331
 10
-95.61097557123117
 20
691.0039017491855
 10
-95.61104031465436
 20
691.0988404055911
 10
-95.61110519101374
 20
691.1937778704055
 10
-95.61117020030769
 20
691.2887141411848
 10
-95.6112353425342
 20
691.3836492154849
 10
-95.61130061769199
 20
691.4785830908616
 10
-95.61136602577915
 20
691.5735157648709
 10
-95.61143156679412
 20
691.6684472350689
 10
-95.61149724073528
 20
691.7633774990113
 10
-95.61156304760073
 20
691.8583065542545
 10
-95.61162898738876
 20
691.9532343983544
 10
-95.61169506009788
 20
692.048161028867
 10
-95.61176126572627
 20
692.1430864433487
 10
-95.61182760427227
 20
692.2380106393554
 10
-95.61189407573413
 20
692.3329336144436
 10
-95.61196068011014
 20
692.4278553661693
 10
-95.61202741739851
 20
692.5227758920888
 10
-95.61209428759775
 20
692.6176951897583
 10
-95.61216129070601
 20
692.7126132567344
 10
-95.6122284267214
 20
692.8075300905734
 10
-95.6122956956425
 20
692.9024456888314
 10
-95.61236309746737
 20
692.997360049065
 10
-95.61243063219434
 20
693.0922731688308
 10
-95.61249829982159
 20
693.1871850456851
 10
-95.61256610034746
 20
693.2820956771845
 10
-95.61263403377017
 20
693.3770050608856
 10
-95.61270210008808
 20
693.4719131943447
 10
-95.61277029929948
 20
693.5668200751187
 10
-95.61283863140227
 20
693.6617257007643
 10
-95.61290709639502
 20
693.756630068838
 10
-95.61297569427585
 20
693.8515331768964
 10
-95.61304442504292
 20
693.9464350224966
 10
-95.61311328869459
 20
694.041335603195
 10
-95.61318228522896
 20
694.1362349165488
 10
-95.61325141464454
 20
694.2311329601144
 10
-95.61332067693916
 20
694.3260297314489
 10
-95.61339007211131
 20
694.4209252281094
 10
-95.61345960015893
 20
694.5158194476525
 10
-95.6135292610806
 20
694.6107123876354
 10
-95.61359905487433
 20
694.705604045615
 10
-95.61366898153806
 20
694.8004944191482
 10
-95.61373904107046
 20
694.8953835057925
 10
-95.61380923346963
 20
694.9902713031045
 10
-95.61387955873357
 20
695.0851578086418
 10
-95.61395001686049
 20
695.1800430199612
 10
-95.61402060784871
 20
695.2749269346201
 10
-95.61409133169638
 20
695.3698095501756
 10
-95.61416218840163
 20
695.4646908641851
 10
-95.61423317796259
 20
695.5595708742059
 10
-95.6143043003775
 20
695.6544495777952
 10
-95.6143755556447
 20
695.7493269725105
 10
-95.6144469437619
 20
695.8442030559092
 10
-95.61451846472762
 20
695.9390778255488
 10
-95.6145901185401
 20
696.0339512789865
 10
-95.61466190519729
 20
696.1288234137803
 10
-95.61473382469717
 20
696.2236942274871
 10
-95.6148058770384
 20
696.318563717665
 10
-95.61487806221856
 20
696.4134318818715
 10
-95.61495038023627
 20
696.508298717664
 10
-95.61502283108934
 20
696.6031642226005
 10
-95.61509541477608
 20
696.6980283942383
 10
-95.61516813129463
 20
696.7928912301355
 10
-95.61524098064301
 20
696.8877527278498
 10
-95.61531396281941
 20
696.9826128849391
 10
-95.61538707782171
 20
697.077471698961
 10
-95.61546032564848
 20
697.1723291674736
 10
-95.61553370629757
 20
697.2671852880347
 10
-95.61560721976707
 20
697.3620400582023
 10
-95.61568086605518
 20
697.4568934755343
 10
-95.61575464516
 20
697.5517455375889
 10
-95.61582855707957
 20
697.6465962419241
 10
-95.61590260181191
 20
697.741445586098
 10
-95.61597677935527
 20
697.8362935676685
 10
-95.61605108970775
 20
697.9311401841941
 10
-95.61612553286739
 20
698.025985433233
 10
-95.61620010883206
 20
698.120829312343
 10
-95.6162748176003
 20
698.2156718190828
 10
-95.61634965916971
 20
698.3105129510104
 10
-95.61642463353853
 20
698.4053527056842
 10
-95.61649974070514
 20
698.5001910806629
 10
-95.61657498066711
 20
698.5950280735046
 10
-95.61665035342292
 20
698.6898636817677
 10
-95.61672585897031
 20
698.784697903011
 10
-95.61680149730761
 20
698.8795307347928
 10
-95.61687726843258
 20
698.9743621746716
 10
-95.61695317234342
 20
699.0691922202058
 10
-95.61702920903826
 20
699.1640208689546
  0
LINE
  5
3F
330
2
100
AcDbEntity
  8
AM_HID
100
AcDbLine
 10
-98.77219080043779
 20
699.1640208689549
 30
0.0
 11
-98.77219080043779
 21
690.8140208713765
 31
0.0
  0
LINE
  5
40
330
2
100
AcDbEntity
  8
AM_HID
100
AcDbLine
 10
-98.72157111216063
 20
699.1640208689549
 30
0.0
 11
-98.72157111216063
 21
690.8140208713765
 31
0.0
  0
LINE
  5
41
330
2
100
AcDbEntity
  8
AM_HID
100
AcDbLine
 10
-96.62157111276968
 20
699.1640208689549
 30
0.0
 11
-96.62157111276968
 21
690.8140208713765
 31
0.0
  0
LINE
  5
42
330
2
100
AcDbEntity
  8
AM_HID
100
AcDbLine
 10
-96.57095142449254
 20
690.8140208713765
 30
0.0
 11
-96.57095142449254
 21
699.1640208689549
 31
0.0
  0
LINE
  5
43
330
2
100
AcDbEntity
  8
AM_HID
100
AcDbLine
 10
-95.72097111303071
 20
699.1640208689549
 30
0.0
 11
-95.72097111303071
 21
690.8140208713765
 31
0.0
  0
LINE
  5
44
330
2
100
AcDbEntity
  8
AM_HID
100
AcDbLine
 10
-99.82217111184127
 20
690.8146208713766
 30
0.0
 11
-99.82217111184127
 21
695.4491871556203
 31
0.0
  0
LINE
  5
45
330
2
100
AcDbEntity
  8
AM_HID
100
AcDbLine
 10
-99.93562039308812
 20
692.2860126134484
 30
0.0
 11
-99.93562039308812
 21
690.8146208713766
 31
0.0
  0
LWPOLYLINE
  5
46
330
2
100
AcDbEntity
  8
AM_HID
100
AcDbPolyline
 90
       89
 70
     0
 43
0.0
 10
46.8738869415946
 20
699.164020868955
 10
46.87381090489975
 20
699.0691922202063
 10
46.87373500098885
 20
698.9743621746717
 10
46.87365922986384
 20
698.8795307347929
 10
46.87358359152665
 20
698.7846979030114
 10
46.87350808597921
 20
698.6898636817681
 10
46.87343271322345
 20
698.5950280735048
 10
46.87335747326142
 20
698.5001910806631
 10
46.87328236609494
 20
698.4053527056845
 10
46.87320739172605
 20
698.3105129510106
 10
46.87313255015635
 20
698.2156718190829
 10
46.87305784138835
 20
698.1208293123431
 10
46.87298326542349
 20
698.0259854332331
 10
46.87290882226398
 20
697.9311401841944
 10
46.8728345119116
 20
697.8362935676686
 10
46.87276033436808
 20
697.7414455860983
 10
46.87268628963579
 20
697.6465962419243
 10
46.87261237771622
 20
697.5517455375891
 10
46.87253859861141
 20
697.4568934755345
 10
46.87246495232341
 20
697.3620400582023
 10
46.87239143885392
 20
697.2671852880349
 10
46.87231805820488
 20
697.1723291674736
 10
46.8722448103781
 20
697.0774716989612
 10
46.87217169537553
 20
696.9826128849391
 10
46.87209871319919
 20
696.88775272785
 10
46.87202586385081
 20
696.7928912301356
 10
46.87195314733242
 20
696.6980283942384
 10
46.87188056364573
 20
696.6031642226005
 10
46.87180811279256
 20
696.508298717664
 10
46.87173579477496
 20
696.4134318818716
 10
46.87166360959452
 20
696.3185637176651
 10
46.87159155725362
 20
696.2236942274873
 10
46.87151963775352
 20
696.1288234137803
 10
46.87144785109637
 20
696.0339512789866
 10
46.871376197284
 20
695.9390778255489
 10
46.87130467631834
 20
695.8442030559093
 10
46.87123328820075
 20
695.7493269725106
 10
46.87116203293385
 20
695.6544495777952
 10
46.87109091051889
 20
695.5595708742059
 10
46.8710199209579
 20
695.464690864185
 10
46.87094906425272
 20
695.3698095501756
 10
46.87087834040505
 20
695.2749269346201
 10
46.87080774941683
 20
695.1800430199611
 10
46.87073729128985
 20
695.0851578086418
 10
46.87066696602596
 20
694.9902713031045
 10
46.87059677362685
 20
694.8953835057923
 10
46.87052671409446
 20
694.8004944191482
 10
46.87045678743039
 20
694.7056040456149
 10
46.87038699363688
 20
694.6107123876353
 10
46.8703173327151
 20
694.5158194476524
 10
46.87024780466742
 20
694.4209252281093
 10
46.87017840949545
 20
694.3260297314489
 10
46.87010914720076
 20
694.2311329601143
 10
46.87004001778541
 20
694.1362349165488
 10
46.86997102125076
 20
694.041335603195
 10
46.86990215759919
 20
693.9464350224965
 10
46.86983342683208
 20
693.8515331768963
 10
46.86976482895125
 20
693.7566300688379
 10
46.86969636395872
 20
693.6617257007642
 10
46.86962803185577
 20
693.5668200751186
 10
46.86955983264454
 20
693.4719131943445
 10
46.86949176632663
 20
693.3770050608853
 10
46.86942383290386
 20
693.2820956771843
 10
46.86935603237782
 20
693.1871850456849
 10
46.86928836475067
 20
693.0922731688306
 10
46.86922083002355
 20
692.9973600490647
 10
46.86915342819884
 20
692.9024456888312
 10
46.86908615927769
 20
692.8075300905731
 10
46.86901902326224
 20
692.7126132567342
 10
46.86895202015409
 20
692.6176951897581
 10
46.86888514995496
 20
692.5227758920885
 10
46.86881841266631
 20
692.427855366169
 10
46.86875180829031
 20
692.3329336144433
 10
46.86868533682843
 20
692.2380106393553
 10
46.8686189982825
 20
692.1430864433484
 10
46.8685527926541
 20
692.0481610288668
 10
46.86848671994505
 20
691.9532343983542
 10
46.86842078015695
 20
691.8583065542541
 10
46.8683549732915
 20
691.763377499011
 10
46.86828929935041
 20
691.6684472350687
 10
46.86822375833549
 20
691.5735157648708
 10
46.86815835024833
 20
691.4785830908613
 10
46.86809307509054
 20
691.3836492154845
 10
46.86802793286381
 20
691.2887141411845
 10
46.86796292356996
 20
691.1937778704051
 10
46.86789804721058
 20
691.0988404055906
 10
46.86783330378728
 20
691.0039017491851
 10
46.86776869330185
 20
690.9089619036326
 10
46.8677042157559
 20
690.8140208713777
  0
LWPOLYLINE
  5
47
330
2
100
AcDbEntity
  8
AM_HID
100
AcDbPolyline
 90
       89
 70
     0
 43
0.0
 10
46.36772325436879
 20
690.8527740305932
 10
46.36778773191474
 20
690.9477950468686
 10
46.36785234240028
 20
691.0428148754418
 10
46.36791708582348
 20
691.137833513866
 10
46.36798196218285
 20
691.2328509596956
 10
46.36804697147681
 20
691.3278672104841
 10
46.36811211370343
 20
691.4228822637851
 10
46.36817738886122
 20
691.5178961171529
 10
46.36824279694837
 20
691.6129087681412
 10
46.36830833796341
 20
691.7079202143039
 10
46.36837401190439
 20
691.802930453195
 10
46.36843981876984
 20
691.8979394823684
 10
46.36850575855794
 20
691.992947299378
 10
46.36857183126699
 20
692.0879539017784
 10
46.3686380368955
 20
692.1829592871231
 10
46.36870437544155
 20
692.2779634529664
 10
46.36877084690332
 20
692.3729663968625
 10
46.36883745127931
 20
692.4679681163654
 10
46.36890418856774
 20
692.5629686090296
 10
46.36897105876698
 20
692.6579678724092
 10
46.36903806187513
 20
692.7529659040583
 10
46.36910519789057
 20
692.8479627015315
 10
46.36917246681162
 20
692.9429582623828
 10
46.36923986863656
 20
693.0379525841667
 10
46.36930740336345
 20
693.1329456644378
 10
46.36937507099071
 20
693.2279375007501
 10
46.36944287151675
 20
693.3229280906587
 10
46.36951080493941
 20
693.4179174317174
 10
46.36957887125731
 20
693.5129055214812
 10
46.36964707046866
 20
693.6078923575044
 10
46.3697154025715
 20
693.7028779373415
 10
46.36978386756425
 20
693.7978622585476
 10
46.36985246544509
 20
693.8928453186768
 10
46.36992119621209
 20
693.9878271152841
 10
46.36999005986377
 20
694.0828076459243
 10
46.37005905639819
 20
694.177786908152
 10
46.37012818581365
 20
694.2727648995218
 10
46.37019744810823
 20
694.3677416175887
 10
46.37026684328055
 20
694.4627170599076
 10
46.37033637132822
 20
694.5576912240333
 10
46.37040603224977
 20
694.6526641075209
 10
46.3704758260435
 20
694.7476357079249
 10
46.37054575270735
 20
694.8426060228007
 10
46.37061581223963
 20
694.9375750497032
 10
46.37068600463874
 20
695.0325427861875
 10
46.37075632990274
 20
695.1275092298084
 10
46.37082678802971
 20
695.2224743781214
 10
46.37089737901795
 20
695.3174382286813
 10
46.37096810286561
 20
695.4124007790436
 10
46.37103895957091
 20
695.5073620267633
 10
46.37110994913189
 20
695.6023219693957
 10
46.37118107154674
 20
695.697280604496
 10
46.37125232681387
 20
695.7922379296197
 10
46.37132371493112
 20
695.887193942322
 10
46.37139523589678
 20
695.9821486401583
 10
46.37146688970938
 20
696.0771020206843
 10
46.37153867636641
 20
696.1720540814549
 10
46.3716105958664
 20
696.267004820026
 10
46.37168264820764
 20
696.3619542339529
 10
46.37175483338785
 20
696.4569023207914
 10
46.37182715140546
 20
696.5518490780966
 10
46.37189960225862
 20
696.6467945034247
 10
46.37197218594531
 20
696.7417385943311
 10
46.3720449024637
 20
696.8366813483714
 10
46.37211775181208
 20
696.9316227631016
 10
46.37219073398853
 20
697.026562836077
 10
46.372263848991
 20
697.1215015648538
 10
46.37233709681765
 20
697.2164389469876
 10
46.37241047746681
 20
697.3113749800345
 10
46.3724839909363
 20
697.4063096615501
 10
46.3725576372243
 20
697.5012429890906
 10
46.37263141632923
 20
697.5961749602118
 10
46.37270532824868
 20
697.6911055724697
 10
46.37277937298108
 20
697.7860348234204
 10
46.37285355052449
 20
697.8809627106201
 10
46.37292786087686
 20
697.9758892316246
 10
46.3730023040365
 20
698.0708143839901
 10
46.37307688000123
 20
698.165738165273
 10
46.37315158876936
 20
698.2606605730293
 10
46.37322643033883
 20
698.3555816048153
 10
46.37330140470772
 20
698.4505012581873
 10
46.37337651187443
 20
698.5454195307018
 10
46.37345175183634
 20
698.6403364199149
 10
46.3735271245921
 20
698.7352519233829
 10
46.37360263013954
 20
698.8301660386626
 10
46.37367826847685
 20
698.9250787633102
 10
46.37375403960186
 20
699.0199900948822
 10
46.37382994351264
 20
699.1149000309352
 10
46.3739059802075
 20
699.2098085690257
  0
LINE
  5
48
330
2
100
AcDbEntity
  8
AM_HID
100
AcDbLine
 10
46.97782884558705
 20
690.8140208713764
 30
0.0
 11
46.97782884558705
 21
699.164020868955
 31
0.0
  0
LINE
  5
49
330
2
100
AcDbEntity
  8
AM_HID
100
AcDbLine
 10
50.02904853299424
 20
690.8140208713765
 30
0.0
 11
50.02904853299424
 21
699.164020868955
 31
0.0
  0
LINE
  5
4A
330
2
100
AcDbEntity
  8
AM_HID
100
AcDbLine
 10
49.97842884471708
 20
690.8140208713765
 30
0.0
 11
49.97842884471708
 21
699.164020868955
 31
0.0
  0
LINE
  5
4B
330
2
100
AcDbEntity
  8
AM_HID
100
AcDbLine
 10
47.87842884532619
 20
690.8140208713765
 30
0.0
 11
47.87842884532619
 21
699.164020868955
 31
0.0
  0
LINE
  5
4C
330
2
100
AcDbEntity
  8
AM_HID
100
AcDbLine
 10
47.82780915704904
 20
699.164020868955
 30
0.0
 11
47.82780915704904
 21
690.8140208713765
 31
0.0
  0
LINE
  5
4D
330
2
100
AcDbEntity
  8
AM_HID
100
AcDbLine
 10
51.19247812564902
 20
690.8146208713765
 30
0.0
 11
51.19247812564902
 21
692.2860126134483
 31
0.0
  0
LINE
  5
4E
330
2
100
AcDbEntity
  8
AM_HID
100
AcDbLine
 10
51.07902884440216
 20
695.4491871556184
 30
0.0
 11
51.07902884440216
 21
690.8146208713765
 31
0.0
  0
LWPOLYLINE
  5
4F
330
2
100
AcDbEntity
  8
AM_VIS
100
AcDbPolyline
 90
       94
 70
     0
 43
0.0
 10
58.5844106910431
 20
697.0647109963003
 10
58.58271499109992
 20
695.9438260938723
 10
58.58105606479444
 20
694.8227595915684
 10
58.57943391801859
 20
693.7015154711281
 10
58.5778485565337
 20
692.5800977149207
 10
58.57629998597099
 20
691.4585103059329
 10
58.57478821183008
 20
690.3367572277537
 10
58.57331323948085
 20
689.2148424645609
 10
58.57187507416177
 20
688.0927700011059
 10
58.57047372098077
 20
686.9705438227008
 10
58.5691091849153
 20
685.8481679152033
 10
58.56778147081161
 20
684.7256462650031
 10
58.56649058338565
 20
683.6029828590076
 10
58.56523652722228
 20
682.4801816846273
 10
58.56401930677532
 20
681.3572467297624
 10
58.56283892636827
 20
680.2341819827882
 10
58.56169539019356
 20
679.1109914325407
 10
58.56058870231243
 20
677.9876790683031
 10
58.55951886665605
 20
676.8642488797911
 10
58.55848588702372
 20
675.7407048571387
 10
58.55748976708446
 20
674.6170509908845
 10
58.55653051037643
 20
673.4932912719569
 10
58.55560812030637
 20
672.3694296916609
 10
58.55472260015062
 20
671.2454702416627
 10
58.55387395305434
 20
670.121416913976
 10
58.55306218203145
 20
668.9972737009483
 10
58.55228728996531
 20
667.8730445952464
 10
58.55154927960791
 20
666.7487335898418
 10
58.550848153581
 20
665.6243446779972
 10
58.55018391437432
 20
664.4998818532521
 10
58.5495565643472
 20
663.3753491094083
 10
58.54896610572779
 20
662.2507504405155
 10
58.54841254061341
 20
661.1260898408584
 10
58.54789587097013
 20
660.0013713049412
 10
58.54741609863288
 20
658.876598827474
 10
58.5469732253058
 20
657.7517764033581
 10
58.54656725256188
 20
656.6269080276729
 10
58.54619818184301
 20
655.5019976956605
 10
58.54586601445999
 20
654.3770494027122
 10
58.54557075159267
 20
653.2520671443541
 10
58.54531239428979
 20
652.1270549162328
 10
58.54509094346872
 20
651.0020167141014
 10
58.54490639991616
 20
649.8769565338055
 10
58.54475876428762
 20
648.7518783712685
 10
58.54464803710732
 20
647.6267862224779
 10
58.54457421876862
 20
646.5016840834703
 10
58.54453730953378
 20
645.3765759503187
 10
58.54453730953378
 20
644.2514658191164
 10
58.54457421876862
 20
643.1263576859647
 10
58.54464803710732
 20
642.0012555469574
 10
58.54475876428762
 20
640.8761633981667
 10
58.54490639991616
 20
639.7510852356297
 10
58.54509094346872
 20
638.6260250553337
 10
58.54531239428968
 20
637.5009868532024
 10
58.54557075159267
 20
636.3759746250809
 10
58.54586601445999
 20
635.2509923667228
 10
58.54619818184301
 20
634.1260440737745
 10
58.54656725256188
 20
633.0011337417622
 10
58.5469732253058
 20
631.876265366077
 10
58.54741609863288
 20
630.7514429419613
 10
58.54789587097013
 20
629.626670464494
 10
58.54841254061341
 20
628.5019519285766
 10
58.54896610572779
 20
627.3772913289197
 10
58.5495565643472
 20
626.2526926600267
 10
58.5501839143742
 20
625.1281599161829
 10
58.550848153581
 20
624.0036970914379
 10
58.55154927960791
 20
622.8793081795932
 10
58.55228728996519
 20
621.7549971741888
 10
58.55306218203134
 20
620.6307680684869
 10
58.55387395305422
 20
619.5066248554592
 10
58.55472260015051
 20
618.3825715277726
 10
58.55560812030637
 20
617.2586120777741
 10
58.55653051037632
 20
616.1347504974781
 10
58.55748976708435
 20
615.0109907785507
 10
58.55848588702361
 20
613.8873369122965
 10
58.55951886665593
 20
612.763792889644
 10
58.56058870231231
 20
611.6403627011321
 10
58.56169539019345
 20
610.5170503368944
 10
58.56283892636816
 20
609.3938597866469
 10
58.5640193067752
 20
608.2707950396727
 10
58.56523652722216
 20
607.1478600848077
 10
58.56649058338553
 20
606.0250589104275
 10
58.5677814708115
 20
604.9023955044319
 10
58.56910918491519
 20
603.7798738542319
 10
58.57047372098065
 20
602.6574979467343
 10
58.57187507416165
 20
601.5352717683292
 10
58.57331323948073
 20
600.4131993048742
 10
58.57478821182997
 20
599.2912845416814
 10
58.57629998597087
 20
598.1695314635023
 10
58.57784855653358
 20
597.0479440545146
 10
58.57943391801848
 20
595.9265262983069
 10
58.58105606479433
 20
594.8052821778666
 10
58.58271499109969
 20
593.6842156755629
 10
58.58441069104287
 20
592.5633307731348
  0
LWPOLYLINE
  5
50
330
2
100
AcDbEntity
  8
AM_VIS
100
AcDbPolyline
 90
       97
 70
     0
 43
0.0
 10
60.2368141415917
 20
591.0047217714094
 10
60.23506155203745
 20
592.1227812417789
 10
60.23334576348975
 20
593.241028044124
 10
60.23166678204848
 20
594.3594582027666
 10
60.23002461368287
 20
595.4780677413773
 10
60.22841926423166
 20
596.5968526829891
 10
60.22685073940204
 20
597.7158090500109
 10
60.22531904477046
 20
598.8349328642425
 10
60.22382418578263
 20
599.9542201468881
 10
60.2223661677533
 20
601.073666918571
 10
60.22094499586614
 20
602.1932691993473
 10
60.21956067517362
 20
603.3130230087205
 10
60.21821321059736
 20
604.4329243656548
 10
60.21690260692821
 20
605.5529692885904
 10
60.21562886882555
 20
606.6731537954567
 10
60.21439200081795
 20
607.7934739036871
 10
60.21319200730272
 20
608.9139256302328
 10
60.2120288925463
 20
610.0345049915771
 10
60.21090266068381
 20
611.1552080037495
 10
60.20981331571931
 20
612.2760306823397
 10
60.20876086152566
 20
613.3969690425122
 10
60.20774530184496
 20
614.5180190990205
 10
60.20676664028747
 20
615.6391768662199
 10
60.20582488033255
 20
616.7604383580841
 10
60.20492002532865
 20
617.8817995882171
 10
60.20405207849262
 20
619.0032565698689
 10
60.20322104291039
 20
620.1248053159486
 10
60.20242692153647
 20
621.2464418390392
 10
60.20166971719413
 20
622.3681621514118
 10
60.2009494325755
 20
623.4899622650395
 10
60.20026607024124
 20
624.6118381916117
 10
60.19961963262119
 20
625.733785942548
 10
60.19901012201342
 20
626.8558015290129
 10
60.19843754058491
 20
627.9778809619301
 10
60.19790189037133
 20
629.1000202519955
 10
60.19740317327728
 20
630.2222154096929
 10
60.19694139107537
 20
631.3444624453069
 10
60.1965165454078
 20
632.4667573689382
 10
60.1961286377849
 20
633.5890961905168
 10
60.19577766958582
 20
634.7114749198168
 10
60.19546364205814
 20
635.8338895664705
 10
60.19518655631862
 20
636.9563361399825
 10
60.19494641335223
 20
638.0788106497439
 10
60.19474321401253
 20
639.201309105046
 10
60.19457695902236
 20
640.3238275150958
 10
60.19444764897241
 20
641.4463618890287
 10
60.19435528432279
 20
642.5689082359237
 10
60.1942998654016
 20
643.6914625648171
 10
60.19428139240597
 20
644.8140208847165
 10
60.1942998654016
 20
645.9365792046162
 10
60.19435528432279
 20
647.0591335335094
 10
60.19444764897241
 20
648.1816798804044
 10
60.19457695902236
 20
649.3042142543373
 10
60.19474321401253
 20
650.4267326643871
 10
60.19494641335223
 20
651.5492311196894
 10
60.19518655631862
 20
652.6717056294507
 10
60.19546364205814
 20
653.7941522029626
 10
60.19577766958582
 20
654.9165668496164
 10
60.1961286377849
 20
656.0389455789164
 10
60.1965165454078
 20
657.161284400495
 10
60.19694139107537
 20
658.2835793241263
 10
60.19740317327728
 20
659.4058263597403
 10
60.19790189037133
 20
660.5280215174376
 10
60.19843754058491
 20
661.650160807503
 10
60.19901012201342
 20
662.7722402404202
 10
60.1996196326213
 20
663.8942558268854
 10
60.20026607024135
 20
665.0162035778217
 10
60.20094943257561
 20
666.1380795043939
 10
60.20166971719425
 20
667.2598796180216
 10
60.20242692153658
 20
668.3815999303941
 10
60.20322104291051
 20
669.5032364534846
 10
60.20405207849262
 20
670.6247851995642
 10
60.20492002532865
 20
671.746242181216
 10
60.20582488033255
 20
672.8676034113491
 10
60.20676664028747
 20
673.9888649032133
 10
60.20774530184496
 20
675.1100226704129
 10
60.20876086152577
 20
676.2310727269209
 10
60.20981331571943
 20
677.3520110870935
 10
60.21090266068393
 20
678.4728337656838
 10
60.21202889254642
 20
679.5935367778561
 10
60.21319200730284
 20
680.7141161392004
 10
60.21439200081807
 20
681.8345678657461
 10
60.21562886882566
 20
682.9548879739766
 10
60.21690260692844
 20
684.0750724808429
 10
60.21821321059746
 20
685.1951174037785
 10
60.21956067517374
 20
686.3150187607129
 10
60.22094499586626
 20
687.4347725700858
 10
60.22236616775342
 20
688.5543748508624
 10
60.22382418578274
 20
689.673821622545
 10
60.22531904477057
 20
690.7931089051908
 10
60.22685073940215
 20
691.9122327194222
 10
60.22841926423177
 20
693.0311890864441
 10
60.2300246136831
 20
694.1499740280558
 10
60.23166678204859
 20
695.2685835666666
 10
60.23334576348986
 20
696.3870137253093
 10
60.23506155203756
 20
697.5052605276541
 10
60.23681414159193
 20
698.6233199980238
  0
LINE
  5
51
330
2
100
AcDbEntity
  8
AM_VIS
100
AcDbLine
 10
60.47842884167164
 20
698.8649346981036
 30
0.0
 11
60.47842884167152
 21
590.7631070713298
 31
0.0
  0
LINE
  5
52
330
2
100
AcDbEntity
  8
AM_HID
100
AcDbLine
 10
59.42842884197614
 20
686.6250183078173
 30
0.0
 11
59.42842884197614
 21
696.0644055079913
 31
0.0
  0
LINE
  5
53
330
2
100
AcDbEntity
  8
AM_HID
100
AcDbLine
 10
59.31497956072928
 20
692.2860126134483
 30
0.0
 11
59.31497956072928
 21
686.6250183078173
 31
0.0
  0
LINE
  5
54
330
2
100
AcDbEntity
  8
2
100
AcDbLine
 10
-109.2215711091151
 20
644.8140208847168
 30
0.0
 11
60.47842884167187
 21
644.8140208847165
 31
0.0
  0
LINE
  5
55
330
2
100
AcDbEntity
  8
AM_VIS
100
AcDbLine
 10
-102.9880533466171
 20
584.9984524954305
 30
0.0
 11
54.24491107917356
 21
584.9984524954304
 31
0.0
  0
LINE
  5
56
330
2
100
AcDbEntity
  8
AM_VIS
100
AcDbLine
 10
54.47934267247297
 20
584.7640209021311
 30
0.0
 11
-103.2224849399163
 21
584.7640209021313
 31
0.0
  0
LINE
  5
57
330
2
100
AcDbEntity
  8
AM_HID
100
AcDbLine
 10
45.47842884602187
 20
589.0678375870574
 30
0.0
 11
-94.22157111346553
 21
589.0678375870574
 31
0.0
  0
LINE
  5
58
330
2
100
AcDbEntity
  8
AM_HID
100
AcDbLine
 10
-94.22157111346553
 20
589.5212758337552
 30
0.0
 11
45.47842884602187
 21
589.521275833755
 31
0.0
  0
LINE
  5
59
330
2
100
AcDbEntity
  8
AM_VIS
100
AcDbLine
 10
46.92962168854319
 20
587.8838297657869
 30
0.0
 11
-96.07037826998686
 21
587.8838297657869
 31
0.0
  0
LINE
  5
5A
330
2
100
AcDbEntity
  8
AM_VIS
100
AcDbLine
 10
46.92962168854319
 20
587.8523620449502
 30
0.0
 11
-96.07037826998686
 21
587.8523620449502
 31
0.0
  0
LINE
  5
5B
330
2
100
AcDbEntity
  8
AM_VIS
100
AcDbLine
 10
53.1300838472049
 20
586.4869958463766
 30
0.0
 11
-101.8732261146484
 21
586.4869958463766
 31
0.0
  0
LINE
  5
5C
330
2
100
AcDbEntity
  8
AM_HID
100
AcDbLine
 10
-94.22157111346553
 20
588.064020901174
 30
0.0
 11
45.47842884602164
 21
588.064020901174
 31
0.0
  0
LINE
  5
5D
330
2
100
AcDbEntity
  8
AM_HID
100
AcDbLine
 10
45.47842884602164
 20
588.1146405894511
 30
0.0
 11
-94.22157111346553
 21
588.1146405894511
 31
0.0
  0
LINE
  5
5E
330
2
100
AcDbEntity
  8
AM_HID
100
AcDbLine
 10
-94.22157111346553
 20
585.9134012135057
 30
0.0
 11
45.47842884602164
 21
585.9134012135056
 31
0.0
  0
LINE
  5
5F
330
2
100
AcDbEntity
  8
AM_HID
100
AcDbLine
 10
-94.22157111346553
 20
585.964020901783
 30
0.0
 11
45.47842884602164
 21
585.9640209017827
 31
0.0
  0
LINE
  5
60
330
2
100
AcDbEntity
  8
AM_HID
100
AcDbLine
 10
-94.22157111346553
 20
588.9646209009131
 30
0.0
 11
45.47842884602187
 21
588.9646209009131
 31
0.0
  0
LINE
  5
61
330
2
100
AcDbEntity
  8
1
100
AcDbLine
 10
-129.5835564446706
 20
598.8140208980565
 30
0.0
 11
-129.5835564446706
 21
605.4140208961423
 31
0.0
  0
LINE
  5
62
330
2
100
AcDbEntity
  8
1
100
AcDbLine
 10
-139.6835564417414
 20
589.5737257874575
 30
0.0
 11
-139.6835564417415
 21
603.3140208967515
 31
0.0
  0
LINE
  5
63
330
2
100
AcDbEntity
  8
1
100
AcDbLine
 10
-126.6835564455116
 20
598.8140208980568
 30
0.0
 11
-126.6835564455116
 21
606.3146208958815
 31
0.0
  0
LWPOLYLINE
  5
64
330
2
100
AcDbEntity
  8
AM_HID
100
AcDbPolyline
 90
        6
 70
     0
 43
0.0
 10
-103.2215711108553
 20
606.8978282950088
 10
-101.3059767148805
 20
606.6681895060314
 10
-97.89879013986638
 20
604.905332360224
 10
-95.99017604648208
 20
602.4565899792105
 10
-95.26530950019202
 20
600.3572771889499
 10
-95.11086552181268
 20
598.7752677388426
  0
LWPOLYLINE
  5
65
330
2
100
AcDbEntity
  8
AM_HID
100
AcDbPolyline
 90
        6
 70
     0
 43
0.0
 10
-95.6108464831999
 20
598.8140208980565
 10
-95.75570611044089
 20
600.2972711459874
 10
-96.43582068974332
 20
602.2655688131079
 10
-98.22675390734293
 20
604.5615388222667
 10
-101.4239915661842
 20
606.2144454634026
 10
-103.2215711108553
 20
606.4297633206499
  0
ARC
  5
66
330
2
100
AcDbEntity
  8
AM_HID
100
AcDbCircle
 10
-103.2215711108555
 20
598.8140208980564
 30
0.0
 40
6.599999998085758
100
AcDbArc
 50
0.0000000000001272
 51
89.99999999999973
  0
ARC
  5
67
330
2
100
AcDbEntity
  8
AM_HID
100
AcDbCircle
 10
-103.2215711108555
 20
598.8140208980564
 30
0.0
 40
6.650619686362918
100
AcDbArc
 50
0.0000000000001272
 51
89.99999999999973
  0
ARC
  5
68
330
2
100
AcDbEntity
  8
AM_HID
100
AcDbCircle
 10
-103.2215711108555
 20
598.8140208980564
 30
0.0
 40
4.449380310417602
100
AcDbArc
 50
0.0000000000001272
 51
89.99999999999962
  0
ARC
  5
69
330
2
100
AcDbEntity
  8
AM_HID
100
AcDbCircle
 10
-103.2215711108555
 20
598.8140208980564
 30
0.0
 40
4.499999998694764
100
AcDbArc
 50
0.0000000000001272
 51
89.99999999999962
  0
ARC
  5
6A
330
2
100
AcDbEntity
  8
AM_HID
100
AcDbCircle
 10
-103.2215711108557
 20
598.8140208980567
 30
0.0
 40
7.500599997824816
100
AcDbArc
 50
359.999999999999
 51
89.99999999999673
  0
ARC
  5
6B
330
2
100
AcDbEntity
  8
AM_HID
100
AcDbCircle
 10
-103.2221711108554
 20
598.8134208980567
 30
0.0
 40
3.286550717767154
100
AcDbArc
 50
0.0000000000003308
 51
90.00000000000346
  0
ARC
  5
6C
330
2
100
AcDbEntity
  8
AM_HID
100
AcDbCircle
 10
-103.2221711108554
 20
598.8134208980567
 30
0.0
 40
3.399999999014119
100
AcDbArc
 50
0.0000000000003308
 51
90.00000000000333
  0
LINE
  5
6D
330
2
100
AcDbEntity
  8
AM_HID
100
AcDbLine
 10
-108.171571109415
 20
603.0030234616145
 30
0.0
 11
-108.171571109415
 21
593.5636362614397
 31
0.0
  0
ARC
  5
6E
330
2
100
AcDbEntity
  8
AM_HID
100
AcDbCircle
 10
-105.2855711102337
 20
606.1534208959211
 30
0.0
 40
4.053449280097257
100
AcDbArc
 50
229.549393980091
 51
270.0000000000002
  0
ARC
  5
6F
330
2
100
AcDbEntity
  8
AM_HID
100
AcDbCircle
 10
-105.2855711102337
 20
606.1534208959211
 30
0.0
 40
3.939999998850291
100
AcDbArc
 50
229.5493939800912
 51
270.0000000000002
  0
LINE
  5
70
330
2
100
AcDbEntity
  8
AM_HID
100
AcDbLine
 10
-108.058121828168
 20
597.3420291559848
 30
0.0
 11
-108.058121828168
 21
603.0030234616145
 31
0.0
  0
LINE
  5
71
330
2
100
AcDbEntity
  8
1
100
AcDbLine
 10
-140.7835564455115
 20
587.852362041746
 30
0.0
 11
-141.6835564455116
 21
587.852362041746
 31
0.0
  0
LINE
  5
72
330
2
100
AcDbEntity
  8
1
100
AcDbLine
 10
-139.6835564417415
 20
598.8134208980566
 30
0.0
 11
-139.6835564417415
 21
597.3420291559848
 31
0.0
  0
LINE
  5
73
330
2
100
AcDbEntity
  8
1
100
AcDbLine
 10
-135.6835564429016
 20
588.1329684076209
 30
0.0
 11
-135.6835564429016
 21
592.4950733934224
 31
0.0
  0
LINE
  5
74
330
2
100
AcDbEntity
  8
1
100
AcDbLine
 10
-135.1835564430466
 20
588.2123889530215
 30
0.0
 11
-135.1835564430466
 21
592.4156528480216
 31
0.0
  0
LINE
  5
75
330
2
100
AcDbEntity
  8
1
100
AcDbLine
 10
-139.6335564417562
 20
588.0640209011747
 30
0.0
 11
-139.6335564417562
 21
592.5640208998684
 31
0.0
  0
ARC
  5
76
330
2
100
AcDbEntity
  8
1
100
AcDbCircle
 10
-139.1835564417414
 20
589.5737257874575
 30
0.0
 40
0.5
100
AcDbArc
 50
180.0
 51
269.4999999999997
  0
LINE
  5
77
330
2
100
AcDbEntity
  8
1
100
AcDbLine
 10
-129.5835564446706
 20
590.4640209004782
 30
0.0
 11
-129.5835564446706
 21
588.0640209011736
 31
0.0
  0
LINE
  5
78
330
2
100
AcDbEntity
  8
1
100
AcDbLine
 10
-129.5835564446706
 20
588.064020901174
 30
0.0
 11
-129.5835564446706
 21
585.964020901783
 31
0.0
  0
LINE
  5
79
330
2
100
AcDbEntity
  8
1
100
AcDbLine
 10
-141.6179846813817
 20
586.0795926615497
 30
0.0
 11
-139.6335564417562
 21
588.0640209011747
 31
0.0
  0
LINE
  5
7A
330
2
100
AcDbEntity
  8
1
100
AcDbLine
 10
-139.6335564417562
 20
588.0640209011747
 30
0.0
 11
-135.6835564429016
 21
588.1329684076209
 31
0.0
  0
LINE
  5
7B
330
2
100
AcDbEntity
  8
1
100
AcDbLine
 10
-135.6835564429016
 20
588.6640209009999
 30
0.0
 11
-135.1835564430466
 21
588.6640209009999
 31
0.0
  0
LINE
  5
7C
330
2
100
AcDbEntity
  8
1
100
AcDbLine
 10
-135.6835564429016
 20
592.4950733934224
 30
0.0
 11
-139.6335564417561
 21
592.5640208998684
 31
0.0
  0
LINE
  5
7D
330
2
100
AcDbEntity
  8
1
100
AcDbLine
 10
-135.1835564430466
 20
591.9640209000432
 30
0.0
 11
-135.6835564429016
 21
591.9640209000432
 31
0.0
  0
LINE
  5
7E
330
2
100
AcDbEntity
  8
1
100
AcDbLine
 10
-139.6335564417562
 20
592.5640208998684
 30
0.0
 11
-141.6335564411767
 21
594.5640208992886
 31
0.0
  0
LINE
  5
7F
330
2
100
AcDbEntity
  8
1
100
AcDbLine
 10
-129.5835564446706
 20
598.8140208980565
 30
0.0
 11
-129.5835564446706
 21
590.4640209004782
 31
0.0
  0
LINE
  5
80
330
2
100
AcDbEntity
  8
1
100
AcDbLine
 10
-139.1879197094906
 20
589.0737448259253
 30
0.0
 11
-126.6835564455116
 21
588.9646209009129
 31
0.0
  0
LINE
  5
81
330
2
100
AcDbEntity
  8
1
100
AcDbLine
 10
-129.5835564446706
 20
585.964020901783
 30
0.0
 11
-126.6835564455116
 21
585.9134012135057
 31
0.0
  0
LINE
  5
82
330
2
100
AcDbEntity
  8
1
100
AcDbLine
 10
-126.6835564455116
 20
588.1146405894512
 30
0.0
 11
-129.5835564446706
 21
588.064020901174
 31
0.0
  0
LINE
  5
83
330
2
100
AcDbEntity
  8
1
100
AcDbLine
 10
-126.6835564455116
 20
598.8134208980566
 30
0.0
 11
-139.6835564417415
 21
598.8134208980566
 31
0.0
  0
LINE
  5
84
330
2
100
AcDbEntity
  8
1
100
AcDbLine
 10
-126.6835564455116
 20
602.2134208970708
 30
0.0
 11
-139.6835564417415
 21
602.0999716158237
 31
0.0
  0
LINE
  5
85
330
2
100
AcDbEntity
  8
1
100
AcDbLine
 10
-126.6835564455116
 20
594.1788546138146
 30
0.0
 11
-139.4214395949923
 21
594.1788546138146
 31
0.0
  0
LINE
  5
86
330
2
100
AcDbEntity
  8
1
100
AcDbLine
 10
-126.6835564455116
 20
594.0343748488319
 30
0.0
 11
-139.4159424409442
 21
594.1146433629799
 31
0.0
  0
LINE
  5
87
330
2
100
AcDbEntity
  8
1
100
AcDbLine
 10
-126.6835564455116
 20
593.563636261442
 30
0.0
 11
-139.3684819632954
 21
593.563636261442
 31
0.0
  0
LINE
  5
88
330
2
100
AcDbEntity
  8
1
100
AcDbLine
 10
-126.6835564455116
 20
593.4421553133695
 30
0.0
 11
-139.3637798229047
 21
593.5093698916177
 31
0.0
  0
LINE
  5
89
330
2
100
AcDbEntity
  8
1
100
AcDbLine
 10
-140.5256533425064
 20
591.0047217714093
 30
0.0
 11
-126.6835564455116
 21
590.7631070713295
 31
0.0
  0
LINE
  5
8A
330
2
100
AcDbEntity
  8
1
100
AcDbLine
 10
-126.6835564455116
 20
598.8140208980568
 30
0.0
 11
-139.302589123838
 21
598.8140208980568
 31
0.0
  0
LINE
  5
8B
330
2
100
AcDbEntity
  8
1
100
AcDbLine
 10
-135.1835564430466
 20
588.2123889530215
 30
0.0
 11
-126.6835564455116
 21
588.064020901174
 31
0.0
  0
LINE
  5
8C
330
2
100
AcDbEntity
  8
1
100
AcDbLine
 10
-126.6835564455116
 20
592.564020899869
 30
0.0
 11
-135.1835564430466
 21
592.4156528480216
 31
0.0
  0
LINE
  5
8D
330
2
100
AcDbEntity
  8
1
100
AcDbLine
 10
-139.3607356283137
 20
593.4742683281872
 30
0.0
 11
-126.6835564455116
 21
593.3636362614991
 31
0.0
  0
LINE
  5
8E
330
2
100
AcDbEntity
  8
1
100
AcDbLine
 10
-126.6835564455116
 20
595.4640208990324
 30
0.0
 11
-139.5393302367999
 21
595.576211537257
 31
0.0
  0
LINE
  5
8F
330
2
100
AcDbEntity
  8
1
100
AcDbLine
 10
-139.4138265625695
 20
594.0899499981249
 30
0.0
 11
-126.6835564455116
 21
593.9788546138726
 31
0.0
  0
ARC
  5
90
330
2
100
AcDbEntity
  8
AM_VIS
100
AcDbCircle
 10
-140.1835564455116
 20
586.4998927707278
 30
0.0
 40
1.5
100
AcDbArc
 50
179.9999999999999
 51
268.9999999999993
  0
LINE
  5
91
330
2
100
AcDbEntity
  8
AM_VIS
100
AcDbLine
 10
-126.6835564455116
 20
598.8140208980568
 30
0.0
 11
-126.6835564455116
 21
590.4640209004781
 31
0.0
  0
LINE
  5
92
330
2
100
AcDbEntity
  8
AM_VIS
100
AcDbLine
 10
-126.6835564455116
 20
588.9646209009129
 30
0.0
 11
-126.6835564455116
 21
588.1146405894512
 31
0.0
  0
LINE
  5
93
330
2
100
AcDbEntity
  8
AM_VIS
100
AcDbLine
 10
-126.6835564455116
 20
585.9134012135057
 30
0.0
 11
-126.6835564455116
 21
584.7640209021307
 31
0.0
  0
LINE
  5
94
330
2
100
AcDbEntity
  8
AM_VIS
100
AcDbLine
 10
-126.6835564455116
 20
588.114640589451
 30
0.0
 11
-126.6835564455116
 21
585.9134012135054
 31
0.0
  0
LINE
  5
95
330
2
100
AcDbEntity
  8
AM_VIS
100
AcDbLine
 10
-126.6835564455116
 20
590.4640209004781
 30
0.0
 11
-126.6835564455116
 21
588.9646209009129
 31
0.0
  0
LINE
  5
96
330
2
100
AcDbEntity
  8
AM_VIS
100
AcDbLine
 10
-126.6835564455116
 20
584.7640209021307
 30
0.0
 11
-140.2097350551676
 21
585.0001212279932
 31
0.0
  0
ELLIPSE
  5
97
330
2
100
AcDbEntity
  8
AM_VIS
100
AcDbEllipse
 10
-107.3302077125057
 20
591.0047217713607
 30
0.0
 11
-1.64999792924497
 21
0.0026137919311906
 31
0.0
210
0.0
220
0.0
230
1.0
 40
0.0903825181242277
 41
0.0175250275766818
 42
1.19535688595251
  0
POLYLINE
  5
98
330
2
100
AcDbEntity
  8
AM_VIS
100
AcDb2dPolyline
 66
     1
 10
0.0
 20
0.0
 30
0.0
 70
     2
  0
VERTEX
  5
99
330
98
100
AcDbEntity
  8
AM_VIS
100
AcDbVertex
100
AcDb2dVertex
 10
-108.9799564090353
 20
591.0047217713422
 30
0.0
 42
0.021851697583117
  0
VERTEX
  5
9A
330
98
100
AcDbEntity
  8
AM_VIS
100
AcDbVertex
100
AcDb2dVertex
 10
-108.9516866656955
 20
590.3404418691235
 30
0.0
 42
0.0377355066292137
 70
     1
  0
VERTEX
  5
9B
330
98
100
AcDbEntity
  8
AM_VIS
100
AcDbVertex
100
AcDb2dVertex
 10
-108.8896559361117
 20
589.9600863988109
 30
0.0
 42
0.0513270968014124
  0
VERTEX
  5
9C
330
98
100
AcDbEntity
  8
AM_VIS
100
AcDbVertex
100
AcDb2dVertex
 10
-108.275417478526
 20
588.2217924058006
 30
0.0
 42
0.0693578112618788
 70
     1
  0
VERTEX
  5
9D
330
98
100
AcDbEntity
  8
AM_VIS
100
AcDbVertex
100
AcDb2dVertex
 10
-107.5252776105529
 20
587.0786325432543
 30
0.0
 42
0.0462809026232929
  0
VERTEX
  5
9E
330
98
100
AcDbEntity
  8
AM_VIS
100
AcDbVertex
100
AcDb2dVertex
 10
-106.5768851822692
 20
586.1788795149118
 30
0.0
 42
0.0603260438064521
 70
     1
  0
VERTEX
  5
9F
330
98
100
AcDbEntity
  8
AM_VIS
100
AcDbVertex
100
AcDb2dVertex
 10
-105.7185403957754
 20
585.6572370595276
 30
0.0
 42
0.0225358103506907
  0
VERTEX
  5
A0
330
98
100
AcDbEntity
  8
AM_VIS
100
AcDbVertex
100
AcDb2dVertex
 10
-105.0296482903957
 20
585.3816738072967
 30
0.0
 42
0.0184299171294602
 70
     1
  0
VERTEX
  5
A1
330
98
100
AcDbEntity
  8
AM_VIS
100
AcDbVertex
100
AcDb2dVertex
 10
-104.1626803109554
 20
585.1148234959709
 30
0.0
 42
0.0407702445785812
  0
VERTEX
  5
A2
330
98
100
AcDbEntity
  8
AM_VIS
100
AcDbVertex
100
AcDb2dVertex
 10
-103.7236102801649
 20
585.0348155675958
 30
0.0
 42
0.0246812486549779
 70
     1
  0
VERTEX
  5
A3
330
98
100
AcDbEntity
  8
AM_VIS
100
AcDbVertex
100
AcDb2dVertex
 10
-102.9880533466171
 20
584.9984524954304
 30
0.0
  0
SEQEND
  5
A4
330
98
100
AcDbEntity
  8
AM_VIS
  0
POLYLINE
  5
A5
330
2
100
AcDbEntity
  8
AM_VIS
100
AcDb2dPolyline
 66
     1
 10
0.0
 20
0.0
 30
0.0
 70
     2
  0
VERTEX
  5
A6
330
A5
100
AcDbEntity
  8
AM_VIS
100
AcDbVertex
100
AcDb2dVertex
 10
-109.221571109115
 20
590.7631070713298
 30
0.0
 42
0.0984993638832497
  0
VERTEX
  5
A7
330
A5
100
AcDbEntity
  8
AM_VIS
100
AcDbVertex
100
AcDb2dVertex
 10
-108.7650190686465
 20
588.4672973944313
 30
0.0
 42
0.0984993638832431
 70
     1
  0
VERTEX
  5
A8
330
A5
100
AcDbEntity
  8
AM_VIS
100
AcDbVertex
100
AcDb2dVertex
 10
-107.4645902763785
 20
586.5210017348677
 30
0.0
 42
0.0984993638832342
  0
VERTEX
  5
A9
330
A5
100
AcDbEntity
  8
AM_VIS
100
AcDbVertex
100
AcDb2dVertex
 10
-105.5182946168148
 20
585.2205729425996
 30
0.0
 42
0.0984993638832317
 70
     1
  0
VERTEX
  5
AA
330
A5
100
AcDbEntity
  8
AM_VIS
100
AcDbVertex
100
AcDb2dVertex
 10
-103.2224849399163
 20
584.7640209021311
 30
0.0
  0
SEQEND
  5
AB
330
A5
100
AcDbEntity
  8
AM_VIS
  0
LINE
  5
AC
330
2
100
AcDbEntity
  8
AM_VIS
100
AcDbLine
 10
-108.9799564090353
 20
591.0047217714094
 30
0.0
 11
-109.221571109115
 21
590.7631070713298
 31
0.0
  0
LINE
  5
AD
330
2
100
AcDbEntity
  8
AM_HID
100
AcDbLine
 10
-94.22157111346553
 20
589.5212758337552
 30
0.0
 11
-94.22157111346553
 21
589.0678375870574
 31
0.0
  0
LINE
  5
AE
330
2
100
AcDbEntity
  8
AM_HID
100
AcDbLine
 10
-94.22157111346553
 20
588.0640209011742
 30
0.0
 11
-94.22157111346553
 21
588.1146405894513
 31
0.0
  0
LINE
  5
AF
330
2
100
AcDbEntity
  8
AM_HID
100
AcDbLine
 10
-94.22157111346553
 20
585.9134012135059
 30
0.0
 11
-94.22157111346553
 21
585.9640209017832
 31
0.0
  0
LINE
  5
B0
330
2
100
AcDbEntity
  8
AM_HID
100
AcDbLine
 10
-94.22157111346553
 20
588.9646209009131
 30
0.0
 11
-94.22157111346553
 21
589.0678375870574
 31
0.0
  0
LWPOLYLINE
  5
B1
330
2
100
AcDbEntity
  8
AM_VIS
100
AcDbPolyline
 90
       21
 70
     0
 43
0.0
 10
-107.3275529584865
 20
592.5633307731316
 10
-107.2476068189172
 20
592.6866928487627
 10
-106.724498262147
 20
593.3214996639851
 10
-106.0913441149486
 20
593.8420055798963
 10
-105.3471682944786
 20
594.2408432527095
 10
-104.5384788837002
 20
594.4847716338966
 10
-103.7215711107103
 20
594.5640208992885
 10
-102.9046633377204
 20
594.4847716338966
 10
-102.0959739269422
 20
594.2408432527095
 10
-101.3517981064721
 20
593.8420055798963
 10
-100.7186439592737
 20
593.3214996639849
 10
-100.1955354025034
 20
592.6866928487624
 10
-99.79534615293317
 20
591.9410604115499
 10
-99.55090709310651
 20
591.131371279358
 10
-99.47157111194332
 20
590.3140209005215
 10
-99.55096729456636
 20
589.4963633938084
 10
-99.79552503493829
 20
588.6865497946538
 10
-100.1958265219148
 20
587.9409163760433
 10
-100.7190309798144
 20
587.3061557519687
 10
-101.3520191477405
 20
586.7858877561652
 10
-101.8732261146484
 20
586.4869958463766
  0
CIRCLE
  5
B2
330
2
100
AcDbEntity
  8
AM_VIS
100
AcDbCircle
 10
-103.7215711107103
 20
590.3140209005214
 30
0.0
 40
2.249999999346853
  0
LWPOLYLINE
  5
B3
330
2
100
AcDbEntity
  8
AM_HID
100
AcDbPolyline
 90
       10
 70
     0
 43
0.0
 10
-100.0836338082124
 20
594.1146433629787
 10
-100.7878219748237
 20
594.6817286326266
 10
-101.7090097709404
 20
595.1758287939743
 10
-102.71016815884
 20
595.4780274401955
 10
-103.7215711107067
 20
595.5762115372556
 10
-104.7329740625733
 20
595.4780274401955
 10
-105.734132450473
 20
595.1758287939743
 10
-106.6553202465897
 20
594.6817286326266
 10
-107.4389380171288
 20
594.0369082539392
 10
-107.900598995525
 20
593.5093698916159
  0
LINE
  5
B4
330
2
100
AcDbEntity
  8
AM_HID
100
AcDbLine
 10
-99.9356203930882
 20
597.3420291559848
 30
0.0
 11
-108.058121828168
 21
597.3420291559848
 31
0.0
  0
ARC
  5
B5
330
2
100
AcDbEntity
  8
AM_HID
100
AcDbCircle
 10
-103.7215711107067
 20
590.3140209005221
 30
0.0
 40
5.149999998509106
100
AcDbArc
 50
46.25288867866541
 51
142.5979155500454
  0
LWPOLYLINE
  5
B6
330
2
100
AcDbEntity
  8
AM_HID
100
AcDbPolyline
 90
        3
 70
     0
 43
0.0
 10
-108.0581218281681
 20
597.3420291559848
 10
-108.0594703259663
 20
595.4525813176957
 10
-108.0608714414857
 20
593.5636362614395
  0
LINE
  5
B7
330
2
100
AcDbEntity
  8
AM_HID
100
AcDbLine
 10
-105.2855711102337
 20
602.2134208970708
 30
0.0
 11
-105.2855711102337
 21
602.099971615824
 31
0.0
  0
LINE
  5
B8
330
2
100
AcDbEntity
  8
AM_HID
100
AcDbLine
 10
-105.2855711102337
 20
602.099971615824
 30
0.0
 11
-103.2221711108556
 21
602.099971615824
 31
0.0
  0
LINE
  5
B9
330
2
100
AcDbEntity
  8
AM_HID
100
AcDbLine
 10
-103.2221711108556
 20
602.2134208970708
 30
0.0
 11
-105.2855711102337
 21
602.2134208970708
 31
0.0
  0
LINE
  5
BA
330
2
100
AcDbEntity
  8
AM_HID
100
AcDbLine
 10
-103.2221711108556
 20
602.2134208970708
 30
0.0
 11
-103.2221711108556
 21
602.099971615824
 31
0.0
  0
POLYLINE
  5
BB
330
2
100
AcDbEntity
  8
AM_VIS
100
AcDb2dPolyline
 66
     1
 10
0.0
 20
0.0
 30
0.0
 70
     2
  0
VERTEX
  5
BC
330
BB
100
AcDbEntity
  8
AM_VIS
100
AcDbVertex
100
AcDb2dVertex
 10
-107.1373840386741
 20
587.785242137823
 30
0.0
 42
-0.0255339786200416
  0
VERTEX
  5
BD
330
BB
100
AcDbEntity
  8
AM_VIS
100
AcDbVertex
100
AcDb2dVertex
 10
-107.4292161931949
 20
588.2246882866869
 30
0.0
 42
-0.0395726677065147
 70
     1
  0
VERTEX
  5
BE
330
BB
100
AcDbEntity
  8
AM_VIS
100
AcDbVertex
100
AcDb2dVertex
 10
-107.5792599315029
 20
588.5305588315527
 30
0.0
 42
-0.0105438252264404
  0
VERTEX
  5
BF
330
BB
100
AcDbEntity
  8
AM_VIS
100
AcDbVertex
100
AcDb2dVertex
 10
-107.6926269614297
 20
588.8355633119604
 30
0.0
 42
-0.0067444530632345
 70
     1
  0
VERTEX
  5
C0
330
BB
100
AcDbEntity
  8
AM_VIS
100
AcDbVertex
100
AcDb2dVertex
 10
-107.8532577288849
 20
589.318196780149
 30
0.0
 42
-0.0637812111188658
  0
VERTEX
  5
C1
330
BB
100
AcDbEntity
  8
AM_VIS
100
AcDbVertex
100
AcDb2dVertex
 10
-107.9705409268113
 20
589.9612165401718
 30
0.0
 42
-0.0459044538523257
 70
     1
  0
VERTEX
  5
C2
330
BB
100
AcDbEntity
  8
AM_VIS
100
AcDbVertex
100
AcDb2dVertex
 10
-107.9354510439512
 20
590.8669367148637
 30
0.0
  0
SEQEND
  5
C3
330
BB
100
AcDbEntity
  8
AM_VIS
  0
LWPOLYLINE
  5
C4
330
2
100
AcDbEntity
  8
AM_VIS
100
AcDbPolyline
 90
        2
 70
     0
 43
0.0
 10
-102.9880533466171
 20
586.1277992533461
 10
-103.2987318162724
 20
586.0851076925449
  0
LWPOLYLINE
  5
C5
330
2
100
AcDbEntity
  8
AM_VIS
100
AcDbPolyline
 90
        3
 70
     0
 43
0.0
 10
-101.8732261146484
 20
586.4869958463766
 10
-102.4561269565197
 20
586.2567864875066
 10
-102.9880533466171
 20
586.1277992533461
  0
LWPOLYLINE
  5
C6
330
2
100
AcDbEntity
  8
AM_VIS
100
AcDbPolyline
 90
        3
 70
     0
 43
0.0
 10
-107.9354510439492
 20
590.8669367148779
 10
-107.6368389674899
 20
591.9672533703175
 10
-107.3275529584865
 20
592.5633307731332
  0
CIRCLE
  5
C7
330
2
100
AcDbEntity
  8
AM_HID
100
AcDbCircle
 10
-103.7215711107103
 20
590.3140209005214
 30
0.0
 40
2.101631947500118
  0
POLYLINE
  5
C8
330
2
100
AcDbEntity
  8
AM_VIS
100
AcDb2dPolyline
 66
     1
 10
0.0
 20
0.0
 30
0.0
 70
     2
  0
VERTEX
  5
C9
330
C8
100
AcDbEntity
  8
AM_VIS
100
AcDbVertex
100
AcDb2dVertex
 10
-103.2987318162724
 20
586.0851076925451
 30
0.0
 42
-0.0345938506777541
  0
VERTEX
  5
CA
330
C8
100
AcDbEntity
  8
AM_VIS
100
AcDbVertex
100
AcDb2dVertex
 10
-104.0614321953771
 20
586.0929952344418
 30
0.0
 42
-0.0528015450523038
 70
     1
  0
VERTEX
  5
CB
330
C8
100
AcDbEntity
  8
AM_VIS
100
AcDbVertex
100
AcDb2dVertex
 10
-104.5534082802693
 20
586.1850668530311
 30
0.0
 42
-0.0180057294985576
  0
VERTEX
  5
CC
330
C8
100
AcDbEntity
  8
AM_VIS
100
AcDbVertex
100
AcDb2dVertex
 10
-105.1051216619125
 20
586.3718992079527
 30
0.0
 42
-0.0142767691468276
 70
     1
  0
VERTEX
  5
CD
330
C8
100
AcDbEntity
  8
AM_VIS
100
AcDbVertex
100
AcDb2dVertex
 10
-105.7842046273828
 20
586.6518959709419
 30
0.0
 42
-0.0695085478050443
  0
VERTEX
  5
CE
330
C8
100
AcDbEntity
  8
AM_VIS
100
AcDbVertex
100
AcDb2dVertex
 10
-106.4008650477335
 20
587.0371582127712
 30
0.0
 42
-0.0480220110550512
 70
     1
  0
VERTEX
  5
CF
330
C8
100
AcDbEntity
  8
AM_VIS
100
AcDbVertex
100
AcDb2dVertex
 10
-107.1373840386741
 20
587.785242137823
 30
0.0
  0
SEQEND
  5
D0
330
C8
100
AcDbEntity
  8
AM_VIS
  0
CIRCLE
  5
D1
330
2
100
AcDbEntity
  8
AM_VIS
100
AcDbCircle
 10
-103.7215711107103
 20
590.3140209005214
 30
0.0
 40
2.181052492900859
  0
CIRCLE
  5
D2
330
2
100
AcDbEntity
  8
AM_VIS
100
AcDbCircle
 10
-103.7215711107101
 20
590.3140209005214
 30
0.0
 40
1.6499999995215
  0
LINE
  5
D3
330
2
100
AcDbEntity
  8
AM_VIS
100
AcDbLine
 10
-102.9880533466171
 20
584.9984524954304
 30
0.0
 11
-102.9880533466171
 21
586.1277992533463
 31
0.0
  0
LINE
  5
D4
330
2
100
AcDbEntity
  8
AM_VIS
100
AcDbLine
 10
-103.2224849399163
 20
584.7640209021313
 30
0.0
 11
-102.9880533466171
 21
584.9984524954305
 31
0.0
  0
LWPOLYLINE
  5
D5
330
2
100
AcDbEntity
  8
AM_HID
100
AcDbPolyline
 90
        8
 70
     0
 43
0.0
 10
-108.0608714414857
 20
593.5636362614397
 10
-108.0540892851292
 20
593.5294321808685
 10
-108.0347033331505
 20
593.5004111600265
 10
-108.0057510079829
 20
593.4810684594931
 10
-107.9715711094731
 20
593.4742683281857
 10
-107.9373912109633
 20
593.4810684594931
 10
-107.9084388857956
 20
593.5004111600265
 10
-107.900598995525
 20
593.5093698916159
  0
LINE
  5
D6
330
2
100
AcDbEntity
  8
AM_HID
100
AcDbLine
 10
-107.8126926048468
 20
593.4421553133676
 30
0.0
 11
-107.900598995525
 21
593.5093698916159
 31
0.0
  0
ARC
  5
D7
330
2
100
AcDbEntity
  8
AM_HID
100
AcDbCircle
 10
-107.971571109473
 20
593.5636362614396
 30
0.0
 40
0.1999999999419955
100
AcDbArc
 50
180.0
 51
322.5979155498222
  0
LINE
  5
D8
330
2
100
AcDbEntity
  8
AM_HID
100
AcDbLine
 10
-108.171571109415
 20
593.5636362614397
 30
0.0
 11
-108.0608714414857
 21
593.5636362614397
 31
0.0
  0
LWPOLYLINE
  5
D9
330
2
100
AcDbEntity
  8
AM_HID
100
AcDbPolyline
 90
       89
 70
     0
 43
0.0
 10
-95.11086552181268
 20
598.7752677388428
 10
-95.11092999935863
 20
598.6802467225673
 10
-95.11099460984405
 20
598.5852268939942
 10
-95.1110593532673
 20
598.4902082555698
 10
-95.11112422962668
 20
598.3951908097403
 10
-95.11118923892054
 20
598.3001745589519
 10
-95.11125438114721
 20
598.2051595056507
 10
-95.11131965630495
 20
598.1101456522829
 10
-95.11138506439221
 20
598.0151330012945
 10
-95.11145060540712
 20
597.9201215551319
 10
-95.11151627934822
 20
597.8251113162408
 10
-95.11158208621367
 20
597.7301022870674
 10
-95.11164802600177
 20
597.6350944700575
 10
-95.11171409871087
 20
597.5400878676573
 10
-95.11178030433923
 20
597.4450824823125
 10
-95.11184664288515
 20
597.350078316469
 10
-95.11191311434698
 20
597.2550753725731
 10
-95.11197971872309
 20
597.16007365307
 10
-95.11204645601145
 20
597.0650731604059
 10
-95.11211332621071
 20
596.9700738970263
 10
-95.11218032931891
 20
596.8750758653771
 10
-95.11224746533446
 20
596.780079067904
 10
-95.11231473425544
 20
596.6850835070525
 10
-95.11238213608033
 20
596.5900891852685
 10
-95.11244967080727
 20
596.4950961049975
 10
-95.1125173384346
 20
596.400104268685
 10
-95.11258513896047
 20
596.3051136787765
 10
-95.11265307238341
 20
596.2101243377178
 10
-95.11272113870132
 20
596.115136247954
 10
-95.11278933791244
 20
596.0201494119307
 10
-95.11285767001522
 20
595.9251638320933
 10
-95.11292613500797
 20
595.8301795108874
 10
-95.11299473288881
 20
595.7351964507581
 10
-95.11306346365586
 20
595.6402146541506
 10
-95.1131323273076
 20
595.5452341235107
 10
-95.11320132384202
 20
595.450254861283
 10
-95.11327045325737
 20
595.3552768699132
 10
-95.11333971555211
 20
595.2603001518461
 10
-95.11340911072414
 20
595.1653247095271
 10
-95.11347863877194
 20
595.0703505454014
 10
-95.11354829969349
 20
594.975377661914
 10
-95.11361809348716
 20
594.8804060615097
 10
-95.11368802015113
 20
594.7854357466339
 10
-95.11375807968363
 20
594.6904667197316
 10
-95.11382827208256
 20
594.5954989832471
 10
-95.11389859734652
 20
594.5005325396262
 10
-95.11396905547355
 20
594.4055673913132
 10
-95.11403964646172
 20
594.3106035407531
 10
-95.11411037030933
 20
594.2156409903909
 10
-95.11418122701451
 20
594.1206797426712
 10
-95.1142522165756
 20
594.0257198000387
 10
-95.11432333899051
 20
593.9307611649383
 10
-95.11439459425753
 20
593.8358038398146
 10
-95.11446598237483
 20
593.7408478271122
 10
-95.11453750334078
 20
593.6458931292759
 10
-95.11460915715309
 20
593.55093974875
 10
-95.11468094381024
 20
593.4559876879793
 10
-95.11475286331034
 20
593.3610369494083
 10
-95.1148249156513
 20
593.2660875354813
 10
-95.11489710083157
 20
593.1711394486427
 10
-95.11496941884933
 20
593.0761926913374
 10
-95.1150418697024
 20
592.9812472660094
 10
-95.11511445338909
 20
592.8863031751028
 10
-95.11518716990758
 20
592.7913604210625
 10
-95.11526001925597
 20
592.6964190063323
 10
-95.11533300143231
 20
592.6014789333568
 10
-95.11540611643482
 20
592.5065402045802
 10
-95.11547936426143
 20
592.4116028224461
 10
-95.11555274491048
 20
592.3166667893992
 10
-95.11562625838001
 20
592.2217321078835
 10
-95.11569990466819
 20
592.1267987803431
 10
-95.11577368377293
 20
592.0318668092219
 10
-95.1158475956924
 20
591.9369361969639
 10
-95.11592164042491
 20
591.8420069460132
 10
-95.1159958179682
 20
591.7470790588136
 10
-95.11607012832076
 20
591.6521525378091
 10
-95.11614457148027
 20
591.5572273854434
 10
-95.116219147445
 20
591.4623036041606
 10
-95.11629385621313
 20
591.3673811964042
 10
-95.11636869778277
 20
591.2724601646182
 10
-95.1164436721516
 20
591.1775405112461
 10
-95.11651877931797
 20
591.0826222387315
 10
-95.11659401928023
 20
590.9877053495184
 10
-95.11666939203587
 20
590.8927898460502
 10
-95.11674489758332
 20
590.7978757307707
 10
-95.11682053592044
 20
590.7029630061231
 10
-95.11689630704552
 20
590.608051674551
 10
-95.11697221095653
 20
590.5131417384979
 10
-95.11704824765132
 20
590.4182332004075
  0
LWPOLYLINE
  5
DA
330
2
100
AcDbEntity
  8
AM_HID
100
AcDbPolyline
 90
       89
 70
     0
 43
0.0
 10
-95.61702920903831
 20
590.4640209004781
 10
-95.61695317234347
 20
590.5588495492268
 10
-95.61687726843263
 20
590.6536795947612
 10
-95.61680149730767
 20
590.74851103464
 10
-95.61672585897037
 20
590.8433438664218
 10
-95.61665035342299
 20
590.9381780876652
 10
-95.61657498066717
 20
591.0330136959283
 10
-95.61649974070519
 20
591.12785068877
 10
-95.61642463353861
 20
591.2226890637486
 10
-95.61634965916978
 20
591.3175288184226
 10
-95.61627481760035
 20
591.4123699503502
 10
-95.61620010883212
 20
591.5072124570902
 10
-95.61612553286744
 20
591.6020563362001
 10
-95.6160510897078
 20
591.6969015852389
 10
-95.61597677935532
 20
591.7917482017644
 10
-95.61590260181196
 20
591.8865961833351
 10
-95.61582855707962
 20
591.981445527509
 10
-95.61575464516005
 20
592.076296231844
 10
-95.61568086605523
 20
592.1711482938985
 10
-95.61560721976713
 20
592.2660017112307
 10
-95.61553370629765
 20
592.3608564813983
 10
-95.61546032564853
 20
592.4557126019594
 10
-95.61538707782176
 20
592.5505700704721
 10
-95.61531396281948
 20
592.6454288844941
 10
-95.61524098064309
 20
592.7402890415833
 10
-95.6151681312947
 20
592.8351505392976
 10
-95.61509541477613
 20
592.9300133751949
 10
-95.61502283108939
 20
593.0248775468328
 10
-95.61495038023634
 20
593.1197430517691
 10
-95.61487806221862
 20
593.2146098875618
 10
-95.61480587703846
 20
593.3094780517681
 10
-95.61473382469722
 20
593.404347541946
 10
-95.61466190519736
 20
593.499218355653
 10
-95.61459011854015
 20
593.5940904904466
 10
-95.61451846472767
 20
593.6889639438845
 10
-95.61444694376195
 20
593.7838387135241
 10
-95.61437555564475
 20
593.8787147969228
 10
-95.61430430037757
 20
593.9735921916382
 10
-95.61423317796267
 20
594.0684708952274
 10
-95.61416218840168
 20
594.1633509052483
 10
-95.61409133169645
 20
594.2582322192578
 10
-95.61402060784876
 20
594.3531148348134
 10
-95.61395001686054
 20
594.4479987494723
 10
-95.61387955873362
 20
594.5428839607918
 10
-95.61380923346968
 20
594.637770466329
 10
-95.61373904107052
 20
594.732658263641
 10
-95.61366898153812
 20
594.8275473502851
 10
-95.61359905487439
 20
594.9224377238187
 10
-95.61352926108066
 20
595.0173293817981
 10
-95.61345960015898
 20
595.112222321781
 10
-95.61339007211136
 20
595.2071165413242
 10
-95.61332067693923
 20
595.3020120379846
 10
-95.61325141464459
 20
595.3969088093193
 10
-95.61318228522901
 20
595.4918068528849
 10
-95.61311328869464
 20
595.5867061662386
 10
-95.61304442504297
 20
595.6816067469372
 10
-95.61297569427592
 20
595.7765085925372
 10
-95.61290709639507
 20
595.8714117005958
 10
-95.61283863140232
 20
595.9663160686694
 10
-95.61277029929954
 20
596.0612216943149
 10
-95.61270210008814
 20
596.1561285750889
 10
-95.61263403377024
 20
596.2510367085481
 10
-95.61256610034751
 20
596.3459460922492
 10
-95.61249829982164
 20
596.4408567237486
 10
-95.61243063219439
 20
596.5357686006029
 10
-95.61236309746744
 20
596.6306817203688
 10
-95.61229569564256
 20
596.7255960806024
 10
-95.61222842672146
 20
596.8205116788606
 10
-95.61216129070606
 20
596.9154285126994
 10
-95.61209428759781
 20
597.0103465796755
 10
-95.61202741739856
 20
597.1052658773452
 10
-95.61196068011019
 20
597.2001864032646
 10
-95.6118940757342
 20
597.2951081549902
 10
-95.61182760427232
 20
597.3900311300785
 10
-95.61176126572632
 20
597.4849553260852
 10
-95.61169506009793
 20
597.5798807405669
 10
-95.61162898738883
 20
597.6748073710797
 10
-95.61156304760078
 20
597.7697352151794
 10
-95.61149724073533
 20
597.8646642704227
 10
-95.61143156679419
 20
597.9595945343652
 10
-95.61136602577921
 20
598.0545260045631
 10
-95.61130061769205
 20
598.1494586785725
 10
-95.61123534253425
 20
598.2443925539492
 10
-95.61117020030776
 20
598.3393276282493
 10
-95.61110519101379
 20
598.4342638990287
 10
-95.61104031465442
 20
598.5292013638431
 10
-95.61097557123122
 20
598.6241400202487
 10
-95.61091096074585
 20
598.7190798658011
 10
-95.6108464831998
 20
598.8140208980562
  0
LINE
  5
DB
330
2
100
AcDbEntity
  8
AM_HID
100
AcDbLine
 10
-98.77219080043785
 20
598.8140208980565
 30
0.0
 11
-98.77219080043785
 21
590.4640209004781
 31
0.0
  0
LINE
  5
DC
330
2
100
AcDbEntity
  8
AM_HID
100
AcDbLine
 10
-98.72157111216068
 20
598.8140208980565
 30
0.0
 11
-98.72157111216068
 21
590.4640209004781
 31
0.0
  0
LINE
  5
DD
330
2
100
AcDbEntity
  8
AM_HID
100
AcDbLine
 10
-96.62157111276975
 20
598.8140208980565
 30
0.0
 11
-96.62157111276975
 21
590.4640209004781
 31
0.0
  0
LINE
  5
DE
330
2
100
AcDbEntity
  8
AM_HID
100
AcDbLine
 10
-96.57095142449259
 20
590.4640209004781
 30
0.0
 11
-96.57095142449259
 21
598.8140208980565
 31
0.0
  0
LINE
  5
DF
330
2
100
AcDbEntity
  8
AM_HID
100
AcDbLine
 10
-95.72097111303078
 20
598.8140208980565
 30
0.0
 11
-95.72097111303078
 21
590.4640209004781
 31
0.0
  0
LWPOLYLINE
  5
E0
330
2
100
AcDbEntity
  8
AM_HID
100
AcDbPolyline
 90
        3
 70
     0
 43
0.0
 10
-99.93333293402095
 20
594.1788546138131
 10
-99.93449510160616
 20
595.7602668081762
 10
-99.9356203930882
 20
597.3420291559848
  0
LINE
  5
E1
330
2
100
AcDbEntity
  8
AM_HID
100
AcDbLine
 10
-99.82217111184134
 20
594.1788546138131
 30
0.0
 11
-99.82217111184134
 21
598.8134208980567
 31
0.0
  0
ELLIPSE
  5
E2
330
2
100
AcDbEntity
  8
AM_HID
100
AcDbEllipse
 10
-95.11086552181268
 20
598.8140208980565
 30
0.0
 11
0.499999884788834
 21
-0.0003392140220917
 31
0.0
210
0.0
220
0.0
230
1.0
 40
0.0775063007203077
 41
-3.132839676499564
 42
-1.570743744334835
  0
LINE
  5
E3
330
2
100
AcDbEntity
  8
AM_HID
100
AcDbLine
 10
-98.77219080043762
 20
598.8140208980565
 30
0.0
 11
-98.72157111216047
 21
598.8140208980565
 31
0.0
  0
LINE
  5
E4
330
2
100
AcDbEntity
  8
AM_HID
100
AcDbLine
 10
-96.62157111276952
 20
598.8140208980565
 30
0.0
 11
-96.57095142449236
 21
598.8140208980565
 31
0.0
  0
LINE
  5
E5
330
2
100
AcDbEntity
  8
AM_HID
100
AcDbLine
 10
-95.72097111303078
 20
598.8140208980565
 30
0.0
 11
-95.6108464831999
 21
598.8140208980564
 31
0.0
  0
LINE
  5
E6
330
2
100
AcDbEntity
  8
AM_HID
100
AcDbLine
 10
-99.82217111184134
 20
598.8134208980567
 30
0.0
 11
-99.9356203930882
 21
598.8134208980567
 31
0.0
  0
LINE
  5
E7
330
2
100
AcDbEntity
  8
AM_HID
100
AcDbLine
 10
-99.9356203930882
 20
598.8134208980567
 30
0.0
 11
-99.9356203930882
 21
597.3420291559848
 31
0.0
  0
ELLIPSE
  5
E8
330
2
100
AcDbEntity
  8
AM_HID
100
AcDbEllipse
 10
-95.11704824765132
 20
590.4640209004781
 30
0.0
 11
0.4999998388380427
 21
-0.0004012691509574
 31
0.0
210
0.0
220
0.0
230
0.9999999999999998
 40
0.0915753709254243
 41
-3.132829183588653
 42
-1.570722834028727
  0
LINE
  5
E9
330
2
100
AcDbEntity
  8
AM_VIS
100
AcDbLine
 10
-96.07037826998686
 20
587.8523620449502
 30
0.0
 11
-96.07037826998686
 21
587.8838297657869
 31
0.0
  0
LWPOLYLINE
  5
EA
330
2
100
AcDbEntity
  8
AM_VIS
100
AcDbPolyline
 90
        9
 70
     0
 43
0.0
 10
-98.07037826940689
 20
589.8784758323204
 10
-98.03304211966276
 20
589.4948437413736
 10
-97.91805944452391
 20
589.1149425072451
 10
-97.72990945750343
 20
588.7652107991749
 10
-97.48410558849247
 20
588.4675389297997
 10
-97.18595695736304
 20
588.2229377748192
 10
-96.83558216647663
 20
588.0355875669608
 10
-96.45488979733483
 20
587.9210380254148
 10
-96.07037826998681
 20
587.8838297657869
  0
LWPOLYLINE
  5
EB
330
2
100
AcDbEntity
  8
AM_VIS
100
AcDbPolyline
 90
        9
 70
     0
 43
0.0
 10
-98.07037826940689
 20
589.8470143678915
 10
-98.03304216518956
 20
589.4633813332411
 10
-97.91805967967025
 20
589.0834792563866
 10
-97.72991012763458
 20
588.733746880833
 10
-97.48410705626191
 20
588.4360745398307
 10
-97.18595790903926
 20
588.1914717808288
 10
-96.83558265836285
 20
588.0041205379027
 10
-96.45488996337036
 20
587.8895704570153
 10
-96.07037826998681
 20
587.8523620449501
  0
LINE
  5
EC
330
2
100
AcDbEntity
  8
AM_HID
100
AcDbLine
 10
-98.77219080043762
 20
590.4640209004781
 30
0.0
 11
-98.72157111216047
 21
590.4640209004781
 31
0.0
  0
LINE
  5
ED
330
2
100
AcDbEntity
  8
AM_HID
100
AcDbLine
 10
-96.62157111276952
 20
590.4640209004781
 30
0.0
 11
-96.57095142449236
 21
590.4640209004781
 31
0.0
  0
LWPOLYLINE
  5
EE
330
2
100
AcDbEntity
  8
AM_HID
100
AcDbPolyline
 90
        7
 70
     0
 43
0.0
 10
-100.0836338082124
 20
594.1146433629787
 10
-100.0561742335894
 20
594.0967149839935
 10
-100.0221711117833
 20
594.0899499981235
 10
-99.98813850369629
 20
594.0967272064447
 10
-99.95931983077412
 20
594.1160033328039
 10
-99.94006792797103
 20
594.144857536992
 10
-99.93333293402095
 20
594.1788546138131
  0
LINE
  5
EF
330
2
100
AcDbEntity
  8
AM_HID
100
AcDbLine
 10
-100.1604664388459
 20
594.0343748488305
 30
0.0
 11
-100.0836338082124
 21
594.1146433629787
 31
0.0
  0
LINE
  5
F0
330
2
100
AcDbEntity
  8
AM_HID
100
AcDbLine
 10
-99.82217111184134
 20
594.1788546138131
 30
0.0
 11
-99.933332934021
 21
594.1788546138131
 31
0.0
  0
ARC
  5
F1
330
2
100
AcDbEntity
  8
AM_HID
100
AcDbCircle
 10
-100.0221711117833
 20
594.1788546138131
 30
0.0
 40
0.1999999999419955
100
AcDbArc
 50
226.2528886785999
 51
359.9999999999857
  0
LINE
  5
F2
330
2
100
AcDbEntity
  8
AM_HID
100
AcDbLine
 10
-95.72097111303078
 20
590.4640209004781
 30
0.0
 11
-95.61702920903831
 21
590.4640209004781
 31
0.0
  0
LWPOLYLINE
  5
F3
330
2
100
AcDbEntity
  8
AM_HID
100
AcDbPolyline
 90
        6
 70
     0
 43
0.0
 10
-95.11704824765132
 20
590.4182332004071
 10
-95.10337434014354
 20
590.2614876829723
 10
-94.89816425152463
 20
589.8304139481053
 10
-94.62777495391923
 20
589.6187894967657
 10
-94.39614856964851
 20
589.53847261345
 10
-94.22157111346553
 20
589.521275833755
  0
LWPOLYLINE
  5
F4
330
2
100
AcDbEntity
  8
AM_HID
100
AcDbPolyline
 90
        6
 70
     0
 43
0.0
 10
-94.22157111346553
 20
589.0678375870573
 10
-94.49354484332145
 20
589.0945980309407
 10
-94.85441147884063
 20
589.2195856283937
 10
-95.27573363592438
 20
589.5489429989948
 10
-95.59565141206723
 20
590.2199759437195
 10
-95.61702920903831
 20
590.464020900478
  0
ARC
  5
F5
330
2
100
AcDbEntity
  8
AM_HID
100
AcDbCircle
 10
-94.22157111346553
 20
590.4640209004782
 30
0.0
 40
4.550619686972432
100
AcDbArc
 50
180.0000000000002
 51
269.9999999999997
  0
ARC
  5
F6
330
2
100
AcDbEntity
  8
AM_HID
100
AcDbCircle
 10
-94.22157111346553
 20
590.4640209004782
 30
0.0
 40
4.49999999869527
100
AcDbArc
 50
180.0000000000002
 51
269.9999999999997
  0
ARC
  5
F7
330
2
100
AcDbEntity
  8
AM_HID
100
AcDbCircle
 10
-94.22157111346553
 20
590.4640209004782
 30
0.0
 40
2.399999999304275
100
AcDbArc
 50
180.0000000000003
 51
269.9999999999997
  0
ARC
  5
F8
330
2
100
AcDbEntity
  8
AM_HID
100
AcDbCircle
 10
-94.22157111346553
 20
590.4640209004782
 30
0.0
 40
2.349380311027116
100
AcDbArc
 50
180.0000000000003
 51
269.9999999999997
  0
ARC
  5
F9
330
2
100
AcDbEntity
  8
AM_HID
100
AcDbCircle
 10
-94.22157111346553
 20
590.4640209004782
 30
0.0
 40
1.499399999565175
100
AcDbArc
 50
180.0000000000029
 51
270.0000000000054
  0
LINE
  5
FA
330
2
100
AcDbEntity
  8
2
100
AcDbLine
 10
-147.1860123589954
 20
644.8140208847166
 30
0.0
 11
-123.7325370358537
 21
644.8140208847166
 31
0.0
  0
LINE
  5
FB
330
2
100
AcDbEntity
  8
1
100
AcDbLine
 10
-129.5835564446705
 20
683.478020873504
 30
0.0
 11
-129.5835564446706
 21
606.1500208959292
 31
0.0
  0
LINE
  5
FC
330
2
100
AcDbEntity
  8
1
100
AcDbLine
 10
-139.6835564417415
 20
603.3140208967515
 30
0.0
 11
-139.6835564417415
 21
686.3140208726815
 31
0.0
  0
LINE
  5
FD
330
2
100
AcDbEntity
  8
AM_VIS
100
AcDbLine
 10
-126.6835564455115
 20
681.8134208739865
 30
0.0
 11
-126.6835564455116
 21
607.8146208954465
 31
0.0
  0
LINE
  5
FE
330
2
100
AcDbEntity
  8
1
100
AcDbLine
 10
-129.5835564446706
 20
606.1500208959292
 30
0.0
 11
-129.5835564446706
 21
605.4140208961423
 31
0.0
  0
LINE
  5
FF
330
2
100
AcDbEntity
  8
1
100
AcDbLine
 10
-126.6835564455116
 20
607.8146208954465
 30
0.0
 11
-126.6835564455116
 21
606.3146208958815
 31
0.0
  0
LINE
  5
100
330
2
100
AcDbEntity
  8
1
100
AcDbLine
 10
-129.5835564446706
 20
606.1500208959292
 30
0.0
 11
-126.6835564455116
 21
606.1500208959292
 31
0.0
  0
LINE
  5
101
330
2
100
AcDbEntity
  8
1
100
AcDbLine
 10
-126.6835564455116
 20
603.2634012084745
 30
0.0
 11
-129.5835564446706
 21
603.3140208967515
 31
0.0
  0
LINE
  5
102
330
2
100
AcDbEntity
  8
1
100
AcDbLine
 10
-129.5835564446706
 20
605.4140208961426
 30
0.0
 11
-126.6835564455116
 21
605.4646405844196
 31
0.0
  0
LINE
  5
103
330
2
100
AcDbEntity
  8
1
100
AcDbLine
 10
-126.6835564455116
 20
603.1552165743852
 30
0.0
 11
-139.6835564417415
 21
603.0688855780886
 31
0.0
  0
LINE
  5
104
330
2
100
AcDbEntity
  8
1
100
AcDbLine
 10
-126.6835564455116
 20
603.0030234616161
 30
0.0
 11
-139.6835564417415
 21
603.0030234616161
 31
0.0
  0
LINE
  5
105
330
2
100
AcDbEntity
  8
1
100
AcDbLine
 10
-126.6835564455116
 20
606.3146208958815
 30
0.0
 11
-139.6835564417415
 21
606.4280701771285
 31
0.0
  0
LINE
  5
106
330
2
100
AcDbEntity
  8
1
100
AcDbLine
 10
-126.6835564455116
 20
607.8146208954465
 30
0.0
 11
-139.6835564417415
 21
607.8146208954465
 31
0.0
  0
LINE
  5
107
330
2
100
AcDbEntity
  8
1
100
AcDbLine
 10
-126.6835564455116
 20
603.2030234615581
 30
0.0
 11
-139.6835564417415
 21
603.0895741803113
 31
0.0
  0
LINE
  5
108
330
2
100
AcDbEntity
  8
1
100
AcDbLine
 10
-129.5835564446706
 20
683.4780208735042
 30
0.0
 11
-129.5835564446706
 21
684.214020873291
 31
0.0
  0
LINE
  5
109
330
2
100
AcDbEntity
  8
1
100
AcDbLine
 10
-129.5835564446706
 20
690.8140208713769
 30
0.0
 11
-129.5835564446706
 21
684.214020873291
 31
0.0
  0
LINE
  5
10A
330
2
100
AcDbEntity
  8
1
100
AcDbLine
 10
-126.6835564455116
 20
686.4250183078755
 30
0.0
 11
-139.6835564417415
 21
686.5384675891223
 31
0.0
  0
LINE
  5
10B
330
2
100
AcDbEntity
  8
1
100
AcDbLine
 10
-126.6835564455116
 20
681.8134208739868
 30
0.0
 11
-139.6835564417415
 21
681.8134208739868
 31
0.0
  0
LINE
  5
10C
330
2
100
AcDbEntity
  8
1
100
AcDbLine
 10
-126.6835564455116
 20
683.3134208735518
 30
0.0
 11
-139.6835564417415
 21
683.199971592305
 31
0.0
  0
LINE
  5
10D
330
2
100
AcDbEntity
  8
1
100
AcDbLine
 10
-126.6835564455116
 20
690.8140208713766
 30
0.0
 11
-139.302589123838
 21
690.8140208713766
 31
0.0
  0
LINE
  5
10E
330
2
100
AcDbEntity
  8
1
100
AcDbLine
 10
-126.6835564455116
 20
686.6250183078173
 30
0.0
 11
-139.6835564417415
 21
686.6250183078173
 31
0.0
  0
LINE
  5
10F
330
2
100
AcDbEntity
  8
1
100
AcDbLine
 10
-126.6835564455116
 20
686.4728251950482
 30
0.0
 11
-139.6835564417415
 21
686.559156191345
 31
0.0
  0
LINE
  5
110
330
2
100
AcDbEntity
  8
1
100
AcDbLine
 10
-126.6835564455116
 20
687.4146208723626
 30
0.0
 11
-139.6835564417415
 21
687.5280701536096
 31
0.0
  0
LINE
  5
111
330
2
100
AcDbEntity
  8
1
100
AcDbLine
 10
-126.6835564455116
 20
690.8146208713768
 30
0.0
 11
-139.6835564417415
 21
690.8146208713768
 31
0.0
  0
LINE
  5
112
330
2
100
AcDbEntity
  8
1
100
AcDbLine
 10
-129.5835564446706
 20
684.214020873291
 30
0.0
 11
-126.6835564455116
 21
684.1634011850137
 31
0.0
  0
LINE
  5
113
330
2
100
AcDbEntity
  8
1
100
AcDbLine
 10
-126.6835564455116
 20
686.364640560959
 30
0.0
 11
-129.5835564446706
 21
686.3140208726818
 31
0.0
  0
LINE
  5
114
330
2
100
AcDbEntity
  8
1
100
AcDbLine
 10
-129.5835564446706
 20
683.4780208735042
 30
0.0
 11
-126.6835564455116
 21
683.4780208735042
 31
0.0
  0
LINE
  5
115
330
2
100
AcDbEntity
  8
AM_VIS
100
AcDbLine
 10
-126.6835564455116
 20
681.8134208739868
 30
0.0
 11
-126.6835564455116
 21
683.3134208735518
 31
0.0
  0
LINE
  5
116
330
2
100
AcDbEntity
  8
AM_VIS
100
AcDbLine
 10
-126.6835564455116
 20
690.8140208713766
 30
0.0
 11
-126.6835564455116
 21
683.3134208735518
 31
0.0
  0
LWPOLYLINE
  5
117
330
2
100
AcDbEntity
  8
AM_HID
100
AcDbPolyline
 90
       99
 70
     0
 43
0.0
 10
-104.5053595850156
 20
681.8445913878782
 10
-104.5049527071967
 20
681.0898161982846
 10
-104.5045542082747
 20
680.3349822142782
 10
-104.5041640888958
 20
679.5800906592647
 10
-104.5037823496919
 20
678.8251427567433
 10
-104.5034089912818
 20
678.0701397303046
 10
-104.5030440142708
 20
677.3150828036285
 10
-104.5026874192503
 20
676.5599732004816
 10
-104.5023392067983
 20
675.8048121447174
 10
-104.5019993774791
 20
675.0496008602713
 10
-104.5016679318436
 20
674.294340571161
 10
-104.5013448704289
 20
673.5390325014829
 10
-104.5010301937585
 20
672.7836778754115
 10
-104.5007239023427
 20
672.0282779171967
 10
-104.5004259966778
 20
671.272833851161
 10
-104.5001364772465
 20
670.5173469017
 10
-104.4998553445182
 20
669.7618182932773
 10
-104.4995825989486
 20
669.0062492504246
 10
-104.4993182409795
 20
668.2506409977395
 10
-104.4990622710396
 20
667.4949947598823
 10
-104.4988146895436
 20
666.7393117615754
 10
-104.4985754968929
 20
665.983593227601
 10
-104.4983446934752
 20
665.2278403827986
 10
-104.4981222796643
 20
664.472054452063
 10
-104.4979082558211
 20
663.7162366603433
 10
-104.4977026222921
 20
662.9603882326397
 10
-104.4975053794109
 20
662.2045103940023
 10
-104.4973165274971
 20
661.4486043695287
 10
-104.4971360668564
 20
660.6926713843624
 10
-104.496963997782
 20
659.9367126636907
 10
-104.4968003205521
 20
659.180729432742
 10
-104.4966450354323
 20
658.4247229167849
 10
-104.4964981426743
 20
657.668694341126
 10
-104.4963596425162
 20
656.912644931107
 10
-104.4962295351823
 20
656.1565759121037
 10
-104.4961078208836
 20
655.4004885095239
 10
-104.4959944998172
 20
654.6443839488046
 10
-104.495889572167
 20
653.8882634554114
 10
-104.495793038103
 20
653.1321282548349
 10
-104.4957048977817
 20
652.3759795725903
 10
-104.4956251513458
 20
651.6198186342138
 10
-104.4955537989247
 20
650.8636466652624
 10
-104.4954908406338
 20
650.1074648913104
 10
-104.4954362765755
 20
649.351274537948
 10
-104.495390106838
 20
648.5950768307795
 10
-104.4953523314963
 20
647.8388729954211
 10
-104.4953229506114
 20
647.0826642574989
 10
-104.495301964231
 20
646.3264518426464
 10
-104.4952893723892
 20
645.5702369765044
 10
-104.4952851751062
 20
644.8140208847164
 10
-104.4952893723892
 20
644.0578047929284
 10
-104.495301964231
 20
643.3015899267863
 10
-104.4953229506114
 20
642.5453775119343
 10
-104.4953523314963
 20
641.7891687740119
 10
-104.495390106838
 20
641.0329649386535
 10
-104.4954362765755
 20
640.2767672314851
 10
-104.4954908406339
 20
639.5205768781226
 10
-104.4955537989248
 20
638.7643951041706
 10
-104.4956251513459
 20
638.0082231352193
 10
-104.4957048977818
 20
637.2520621968428
 10
-104.4957930381031
 20
636.4959135145981
 10
-104.4958895721671
 20
635.7397783140217
 10
-104.4959944998173
 20
634.9836578206284
 10
-104.4961078208836
 20
634.2275532599091
 10
-104.4962295351824
 20
633.4714658573292
 10
-104.4963596425162
 20
632.7153968383259
 10
-104.4964981426744
 20
631.9593474283069
 10
-104.4966450354324
 20
631.2033188526479
 10
-104.4968003205521
 20
630.4473123366911
 10
-104.496963997782
 20
629.6913291057424
 10
-104.4971360668565
 20
628.9353703850705
 10
-104.4973165274971
 20
628.1794373999042
 10
-104.497505379411
 20
627.4235313754307
 10
-104.4977026222922
 20
626.6676535367934
 10
-104.4979082558212
 20
625.9118051090896
 10
-104.4981222796644
 20
625.15598731737
 10
-104.4983446934753
 20
624.4002013866345
 10
-104.498575496893
 20
623.6444485418319
 10
-104.4988146895437
 20
622.8887300078577
 10
-104.4990622710397
 20
622.1330470095509
 10
-104.4993182409795
 20
621.3774007716938
 10
-104.4995825989486
 20
620.6217925190083
 10
-104.4998553445183
 20
619.8662234761557
 10
-104.5001364772466
 20
619.1106948677331
 10
-104.5004259966778
 20
618.3552079182718
 10
-104.5007239023427
 20
617.5997638522366
 10
-104.5010301937586
 20
616.8443638940216
 10
-104.5013448704289
 20
616.0890092679501
 10
-104.5016679318437
 20
615.3337011982721
 10
-104.5019993774791
 20
614.5784409091616
 10
-104.5023392067983
 20
613.8232296247156
 10
-104.5026874192503
 20
613.0680685689513
 10
-104.5030440142709
 20
612.3129589658047
 10
-104.5034089912819
 20
611.5579020391285
 10
-104.5037823496919
 20
610.8028990126897
 10
-104.5041640888958
 20
610.0479511101682
 10
-104.5045542082748
 20
609.2930595551548
 10
-104.5049527071968
 20
608.5382255711484
 10
-104.5053595850156
 20
607.783450381555
  0
LWPOLYLINE
  5
118
330
2
100
AcDbEntity
  8
AM_HID
100
AcDbPolyline
 90
       99
 70
     0
 43
0.0
 10
-105.0053405464028
 20
607.8146208954464
 10
-105.0049336685839
 20
608.5687607523887
 10
-105.004535169662
 20
609.3229593542538
 10
-105.0041450502829
 20
610.0772154786654
 10
-105.003763311079
 20
610.8315279031544
 10
-105.003389952669
 20
611.58589540516
 10
-105.003024975658
 20
612.3403167620327
 10
-105.0026683806374
 20
613.0947907510353
 10
-105.0023201681854
 20
613.8493161493451
 10
-105.0019803388662
 20
614.603891734057
 10
-105.0016488932306
 20
615.3585162821833
 10
-105.0013258318159
 20
616.1131885706578
 10
-105.0010111551457
 20
616.8679073763369
 10
-105.0007048637298
 20
617.6226714760011
 10
-105.0004069580649
 20
618.377479646358
 10
-105.0001174386336
 20
619.1323306640436
 10
-104.9998363059053
 20
619.8872233056242
 10
-104.9995635603358
 20
620.642156347599
 10
-104.9992992023666
 20
621.3971285664016
 10
-104.9990432324266
 20
622.152138738402
 10
-104.9987956509306
 20
622.9071856399088
 10
-104.99855645828
 20
623.6622680471712
 10
-104.9983256548622
 20
624.4173847363803
 10
-104.9981032410516
 20
625.1725344836724
 10
-104.9978892172083
 20
625.9277160651298
 10
-104.9976835836794
 20
626.6829282567831
 10
-104.9974863407982
 20
627.4381698346136
 10
-104.9972974888842
 20
628.1934395745548
 10
-104.9971170282437
 20
628.9487362524944
 10
-104.996944959169
 20
629.7040586442768
 10
-104.9967812819392
 20
630.4594055257044
 10
-104.9966259968195
 20
631.2147756725403
 10
-104.9964791040615
 20
631.9701678605095
 10
-104.9963406039032
 20
632.725580865301
 10
-104.9962104965693
 20
633.4810134625711
 10
-104.9960887822706
 20
634.2364644279435
 10
-104.9959754612044
 20
634.9919325370123
 10
-104.9958705335542
 20
635.7474165653439
 10
-104.9957739994902
 20
636.5029152884788
 10
-104.9956858591688
 20
637.2584274819337
 10
-104.995606112733
 20
638.0139519212036
 10
-104.9955347603119
 20
638.7694873817637
 10
-104.995471802021
 20
639.5250326390709
 10
-104.9954172379627
 20
640.2805864685669
 10
-104.9953710682252
 20
641.0361476456787
 10
-104.9953332928833
 20
641.7917149458222
 10
-104.9953039119984
 20
642.5472871444029
 10
-104.995282925618
 20
643.3028630168183
 10
-104.9952703337762
 20
644.0584413384604
 10
-104.9952661364933
 20
644.8140208847164
 10
-104.9952703337762
 20
645.5696004309727
 10
-104.995282925618
 20
646.3251787526147
 10
-104.9953039119984
 20
647.08075462503
 10
-104.9953332928833
 20
647.8363268236107
 10
-104.9953710682252
 20
648.5918941237542
 10
-104.9954172379627
 20
649.3474553008662
 10
-104.995471802021
 20
650.1030091303621
 10
-104.9955347603118
 20
650.8585543876693
 10
-104.9956061127329
 20
651.6140898482293
 10
-104.9956858591687
 20
652.3696142874994
 10
-104.9957739994901
 20
653.1251264809543
 10
-104.9958705335542
 20
653.8806252040892
 10
-104.9959754612043
 20
654.6361092324208
 10
-104.9960887822705
 20
655.3915773414895
 10
-104.9962104965693
 20
656.1470283068618
 10
-104.9963406039031
 20
656.9024609041319
 10
-104.9964791040614
 20
657.6578739089237
 10
-104.9966259968194
 20
658.4132660968927
 10
-104.9967812819392
 20
659.1686362437285
 10
-104.9969449591689
 20
659.9239831251561
 10
-104.9971170282436
 20
660.6793055169386
 10
-104.9972974888842
 20
661.4346021948782
 10
-104.9974863407981
 20
662.1898719348194
 10
-104.9976835836793
 20
662.9451135126498
 10
-104.9978892172082
 20
663.7003257043033
 10
-104.9981032410515
 20
664.4555072857606
 10
-104.9983256548622
 20
665.2106570330528
 10
-104.9985564582799
 20
665.9657737222619
 10
-104.9987956509306
 20
666.7208561295243
 10
-104.9990432324265
 20
667.475903031031
 10
-104.9992992023665
 20
668.2309132030313
 10
-104.9995635603357
 20
668.9858854218339
 10
-104.9998363059053
 20
669.7408184638089
 10
-105.0001174386336
 20
670.4957111053895
 10
-105.0004069580649
 20
671.250562123075
 10
-105.0007048637298
 20
672.0053702934319
 10
-105.0010111551456
 20
672.760134393096
 10
-105.0013258318159
 20
673.5148531987752
 10
-105.0016488932306
 20
674.2695254872497
 10
-105.0019803388662
 20
675.0241500353761
 10
-105.0023201681854
 20
675.7787256200876
 10
-105.0026683806373
 20
676.5332510183977
 10
-105.003024975658
 20
677.2877250074003
 10
-105.0033899526689
 20
678.042146364273
 10
-105.0037633110789
 20
678.7965138662786
 10
-105.0041450502829
 20
679.5508262907677
 10
-105.0045351696619
 20
680.3050824151792
 10
-105.0049336685838
 20
681.0592810170442
 10
-105.0053405464028
 20
681.8134208739865
  0
LINE
  5
119
330
2
100
AcDbEntity
  8
AM_HID
100
AcDbLine
 10
-108.1721907977116
 20
683.478020873504
 30
0.0
 11
-108.1721907977116
 21
606.1500208959292
 31
0.0
  0
LINE
  5
11A
330
2
100
AcDbEntity
  8
AM_HID
100
AcDbLine
 10
-108.1215711094345
 20
683.478020873504
 30
0.0
 11
-108.1215711094346
 21
606.1500208959292
 31
0.0
  0
LINE
  5
11B
330
2
100
AcDbEntity
  8
AM_HID
100
AcDbLine
 10
-106.0215711100436
 20
683.478020873504
 30
0.0
 11
-106.0215711100437
 21
606.1500208959292
 31
0.0
  0
LINE
  5
11C
330
2
100
AcDbEntity
  8
AM_HID
100
AcDbLine
 10
-105.9709514217665
 20
606.1500208959292
 30
0.0
 11
-105.9709514217664
 21
683.478020873504
 31
0.0
  0
LINE
  5
11D
330
2
100
AcDbEntity
  8
AM_HID
100
AcDbLine
 10
-105.1209711103046
 20
681.8134208739865
 30
0.0
 11
-105.1209711103046
 21
607.8146208954464
 31
0.0
  0
ARC
  5
11E
330
2
100
AcDbEntity
  8
AM_HID
100
AcDbCircle
 10
-105.2855711102568
 20
606.1500208959292
 30
0.0
 40
2.886619687454991
100
AcDbArc
 50
180.0
 51
270.0000000000003
  0
ARC
  5
11F
330
2
100
AcDbEntity
  8
AM_HID
100
AcDbCircle
 10
-105.2855711102568
 20
606.1500208959292
 30
0.0
 40
2.835999999177828
100
AcDbArc
 50
180.0
 51
270.0000000000003
  0
ELLIPSE
  5
120
330
2
100
AcDbEntity
  8
AM_HID
100
AcDbEllipse
 10
-104.5053595850156
 20
607.8146208954465
 30
0.0
 11
0.4999999255709193
 21
-0.0002725510505624
 31
0.0
210
0.0
220
0.0
230
1.0
 40
0.0623410185752854
 41
-3.132848999677742
 42
-1.57076234456967
  0
LWPOLYLINE
  5
121
330
2
100
AcDbEntity
  8
AM_HID
100
AcDbPolyline
 90
        6
 70
     0
 43
0.0
 10
-104.5053595850156
 20
607.783450381555
 10
-104.4917938294158
 20
607.6285287269846
 10
-104.288869429805
 20
607.2027730828398
 10
-104.021740484394
 20
606.9939285261516
 10
-103.7931907981808
 20
606.9147731602189
 10
-103.6209711107396
 20
606.8978282950089
  0
LINE
  5
122
330
2
100
AcDbEntity
  8
AM_HID
100
AcDbLine
 10
-103.6209711107396
 20
606.8978282950089
 30
0.0
 11
-103.6209711107396
 21
606.4297633206502
 31
0.0
  0
LWPOLYLINE
  5
123
330
2
100
AcDbEntity
  8
AM_HID
100
AcDbPolyline
 90
        6
 70
     0
 43
0.0
 10
-103.6209711107396
 20
606.4297633206502
 10
-103.8905009576051
 20
606.4562549672678
 10
-104.2482005081672
 20
606.580009406636
 10
-104.666323613452
 20
606.9065462725408
 10
-104.9840584503188
 20
607.5723281905692
 10
-105.0053405464028
 20
607.8146208954465
  0
LINE
  5
124
330
2
100
AcDbEntity
  8
AM_HID
100
AcDbLine
 10
-103.6209711107396
 20
606.8978282950089
 30
0.0
 11
-103.2215711108553
 21
606.8978282950089
 31
0.0
  0
LINE
  5
125
330
2
100
AcDbEntity
  8
AM_HID
100
AcDbLine
 10
-103.2215711108553
 20
606.8978282950086
 30
0.0
 11
-103.2215711108553
 21
606.4297633206502
 31
0.0
  0
LINE
  5
126
330
2
100
AcDbEntity
  8
AM_HID
100
AcDbLine
 10
-103.2215711108553
 20
606.4297633206502
 30
0.0
 11
-103.6209711107396
 21
606.4297633206502
 31
0.0
  0
LINE
  5
127
330
2
100
AcDbEntity
  8
AM_HID
100
AcDbLine
 10
-103.2215711108555
 20
605.4140208961426
 30
0.0
 11
-103.2215711108555
 21
605.4646405844196
 31
0.0
  0
LINE
  5
128
330
2
100
AcDbEntity
  8
AM_HID
100
AcDbLine
 10
-103.2215711108555
 20
603.2634012084742
 30
0.0
 11
-103.2215711108555
 21
603.3140208967515
 31
0.0
  0
LINE
  5
129
330
2
100
AcDbEntity
  8
AM_HID
100
AcDbLine
 10
-105.2855711102568
 20
605.4140208961423
 30
0.0
 11
-103.2215711108555
 21
605.4140208961423
 31
0.0
  0
LINE
  5
12A
330
2
100
AcDbEntity
  8
AM_HID
100
AcDbLine
 10
-105.2855711102568
 20
605.4140208961426
 30
0.0
 11
-105.2855711102568
 21
605.4646405844196
 31
0.0
  0
LINE
  5
12B
330
2
100
AcDbEntity
  8
AM_HID
100
AcDbLine
 10
-103.2215711108555
 20
605.4646405844193
 30
0.0
 11
-105.2855711102568
 21
605.4646405844193
 31
0.0
  0
LINE
  5
12C
330
2
100
AcDbEntity
  8
AM_HID
100
AcDbLine
 10
-105.2855711102568
 20
603.2634012084741
 30
0.0
 11
-103.2215711108555
 21
603.2634012084741
 31
0.0
  0
LINE
  5
12D
330
2
100
AcDbEntity
  8
AM_HID
100
AcDbLine
 10
-105.2855711102568
 20
603.2634012084742
 30
0.0
 11
-105.2855711102568
 21
603.3140208967515
 31
0.0
  0
LINE
  5
12E
330
2
100
AcDbEntity
  8
AM_HID
100
AcDbLine
 10
-105.2855711102568
 20
603.3140208967513
 30
0.0
 11
-103.2215711108555
 21
603.3140208967513
 31
0.0
  0
LINE
  5
12F
330
2
100
AcDbEntity
  8
AM_HID
100
AcDbLine
 10
-108.1721907977114
 20
606.1500208959292
 30
0.0
 11
-108.1215711094344
 21
606.1500208959292
 31
0.0
  0
ARC
  5
130
330
2
100
AcDbEntity
  8
AM_HID
100
AcDbCircle
 10
-105.2855711102568
 20
606.1500208959292
 30
0.0
 40
0.7359999997868342
100
AcDbArc
 50
180.0
 51
270.0
  0
LINE
  5
131
330
2
100
AcDbEntity
  8
AM_HID
100
AcDbLine
 10
-106.0215711100434
 20
606.1500208959292
 30
0.0
 11
-105.9709514217663
 21
606.1500208959292
 31
0.0
  0
ARC
  5
132
330
2
100
AcDbEntity
  8
AM_HID
100
AcDbCircle
 10
-105.2855711102568
 20
606.1500208959292
 30
0.0
 40
0.6853803115096751
100
AcDbArc
 50
180.0
 51
270.0
  0
ARC
  5
133
330
2
100
AcDbEntity
  8
AM_HID
100
AcDbCircle
 10
-103.6209711107396
 20
607.8146208954465
 30
0.0
 40
1.499999999565042
100
AcDbArc
 50
180.0000000000016
 51
269.9999999999984
  0
LINE
  5
134
330
2
100
AcDbEntity
  8
AM_HID
100
AcDbLine
 10
-103.6209711107396
 20
606.3146208958815
 30
0.0
 11
-103.2215711108553
 21
606.3146208958815
 31
0.0
  0
LINE
  5
135
330
2
100
AcDbEntity
  8
AM_HID
100
AcDbLine
 10
-105.1209711103046
 20
607.8146208954464
 30
0.0
 11
-105.0053405464028
 21
607.8146208954464
 31
0.0
  0
LINE
  5
136
330
2
100
AcDbEntity
  8
AM_HID
100
AcDbLine
 10
-103.6209711107396
 20
606.3146208958815
 30
0.0
 11
-103.6209711107396
 21
606.4297633206502
 31
0.0
  0
LINE
  5
137
330
2
100
AcDbEntity
  8
AM_HID
100
AcDbLine
 10
-103.2215711108553
 20
606.3146208958815
 30
0.0
 11
-103.2215711108553
 21
606.4297633206502
 31
0.0
  0
ARC
  5
138
330
2
100
AcDbEntity
  8
AM_HID
100
AcDbCircle
 10
-107.971571109473
 20
603.0030234616145
 30
0.0
 40
0.0865507186950313
100
AcDbArc
 50
49.54939398009493
 51
180.0
  0
LINE
  5
139
330
2
100
AcDbEntity
  8
AM_HID
100
AcDbLine
 10
-108.171571109415
 20
603.0030234616145
 30
0.0
 11
-108.058121828168
 21
603.0030234616145
 31
0.0
  0
ARC
  5
13A
330
2
100
AcDbEntity
  8
AM_HID
100
AcDbCircle
 10
-107.971571109473
 20
603.0030234616145
 30
0.0
 40
0.1999999999419955
100
AcDbArc
 50
49.54939398009065
 51
180.0
  0
LINE
  5
13B
330
2
100
AcDbEntity
  8
AM_HID
100
AcDbLine
 10
-107.8418126554033
 20
603.1552165743832
 30
0.0
 11
-107.9154176721743
 21
603.0688855780863
 31
0.0
  0
ARC
  5
13C
330
2
100
AcDbEntity
  8
AM_HID
100
AcDbCircle
 10
-105.2855711102568
 20
683.478020873504
 30
0.0
 40
2.886619687454983
100
AcDbArc
 50
89.99999999999969
 51
180.0
  0
ARC
  5
13D
330
2
100
AcDbEntity
  8
AM_HID
100
AcDbCircle
 10
-105.2855711102568
 20
683.478020873504
 30
0.0
 40
2.835999999177821
100
AcDbArc
 50
89.99999999999969
 51
180.0
  0
LWPOLYLINE
  5
13E
330
2
100
AcDbEntity
  8
AM_HID
100
AcDbPolyline
 90
        6
 70
     0
 43
0.0
 10
-95.11086552181263
 20
690.8527740305935
 10
-95.27076897211856
 20
689.2434153924817
 10
-97.08583407588731
 20
685.5387501835208
 10
-99.53140336109477
 20
683.6189960278062
 10
-101.6345058012342
 20
682.8871264015649
 10
-103.2215711108554
 20
682.7302134744244
  0
LWPOLYLINE
  5
13F
330
2
100
AcDbEntity
  8
AM_HID
100
AcDbPolyline
 90
        6
 70
     0
 43
0.0
 10
-103.2215711108554
 20
683.1982784487829
 10
-101.7322803280555
 20
683.3454058802617
 10
-99.75875557053484
 20
684.0316317328401
 10
-97.46391077942224
 20
685.8316382119235
 10
-95.76082799833523
 20
689.3051285289975
 10
-95.61084648319974
 20
690.8140208713795
  0
ARC
  5
140
330
2
100
AcDbEntity
  8
AM_HID
100
AcDbCircle
 10
-103.2215711108555
 20
690.8140208713766
 30
0.0
 40
4.449380310417609
100
AcDbArc
 50
270.0000000000005
 51
359.9999999999996
  0
ARC
  5
141
330
2
100
AcDbEntity
  8
AM_HID
100
AcDbCircle
 10
-103.2215711108555
 20
690.8140208713766
 30
0.0
 40
4.499999998694772
100
AcDbArc
 50
270.0000000000005
 51
359.9999999999997
  0
ARC
  5
142
330
2
100
AcDbEntity
  8
AM_HID
100
AcDbCircle
 10
-103.2215711108555
 20
690.8140208713766
 30
0.0
 40
6.599999998085766
100
AcDbArc
 50
270.0000000000003
 51
359.9999999999997
  0
ARC
  5
143
330
2
100
AcDbEntity
  8
AM_HID
100
AcDbCircle
 10
-103.2215711108555
 20
690.8140208713766
 30
0.0
 40
6.650619686362924
100
AcDbArc
 50
270.0000000000003
 51
359.9999999999998
  0
ARC
  5
144
330
2
100
AcDbEntity
  8
AM_HID
100
AcDbCircle
 10
-103.2221711108554
 20
690.8146208713765
 30
0.0
 40
3.286550717767154
100
AcDbArc
 50
269.9999999999965
 51
359.9999999999996
  0
ARC
  5
145
330
2
100
AcDbEntity
  8
AM_HID
100
AcDbCircle
 10
-103.2221711108554
 20
690.8146208713765
 30
0.0
 40
3.399999999014119
100
AcDbArc
 50
269.9999999999966
 51
359.9999999999996
  0
LINE
  5
146
330
2
100
AcDbEntity
  8
AM_HID
100
AcDbLine
 10
-103.2215711108554
 20
682.7302134744243
 30
0.0
 11
-103.2215711108554
 21
683.1982784487829
 31
0.0
  0
LINE
  5
147
330
2
100
AcDbEntity
  8
AM_HID
100
AcDbLine
 10
-103.2215711108554
 20
682.7302134744243
 30
0.0
 11
-103.6209711107395
 21
682.7302134744243
 31
0.0
  0
LINE
  5
148
330
2
100
AcDbEntity
  8
AM_HID
100
AcDbLine
 10
-103.6209711107395
 20
682.7302134744244
 30
0.0
 11
-103.6209711107395
 21
683.1982784487829
 31
0.0
  0
LINE
  5
149
330
2
100
AcDbEntity
  8
AM_HID
100
AcDbLine
 10
-103.6209711107395
 20
683.1982784487829
 30
0.0
 11
-103.2215711108554
 21
683.1982784487829
 31
0.0
  0
LWPOLYLINE
  5
14A
330
2
100
AcDbEntity
  8
AM_HID
100
AcDbPolyline
 90
        6
 70
     0
 43
0.0
 10
-103.6209711107395
 20
682.7302134744244
 10
-103.7761309539233
 20
682.7164845873493
 10
-104.2019788261348
 20
682.5124033263261
 10
-104.4098600811406
 20
682.2451599975072
 10
-104.4885835214777
 20
682.0166601534317
 10
-104.5053595850156
 20
681.844591387878
  0
ELLIPSE
  5
14B
330
2
100
AcDbEntity
  8
AM_HID
100
AcDbEllipse
 10
-104.5053595850156
 20
681.8134208739865
 30
0.0
 11
0.4999999255709193
 21
0.0002725510505858
 31
0.0
210
0.0
220
0.0
230
1.0
 40
0.0623410185752972
 41
1.570762344569562
 42
3.132848999677817
  0
LWPOLYLINE
  5
14C
330
2
100
AcDbEntity
  8
AM_HID
100
AcDbPolyline
 90
        6
 70
     0
 43
0.0
 10
-105.0053405464028
 20
681.8134208739865
 10
-104.9790281960496
 20
682.0825301025572
 10
-104.8557406784891
 20
682.4398633889459
 10
-104.5303099872458
 20
682.857737797736
 10
-103.863801525787
 20
683.1768146866783
 10
-103.6209711107395
 20
683.1982784487829
  0
LINE
  5
14D
330
2
100
AcDbEntity
  8
AM_HID
100
AcDbLine
 10
-108.1721907977114
 20
683.478020873504
 30
0.0
 11
-108.1215711094343
 21
683.478020873504
 31
0.0
  0
LINE
  5
14E
330
2
100
AcDbEntity
  8
AM_HID
100
AcDbLine
 10
-106.0215711100434
 20
683.478020873504
 30
0.0
 11
-105.9709514217662
 21
683.478020873504
 31
0.0
  0
ARC
  5
14F
330
2
100
AcDbEntity
  8
AM_HID
100
AcDbCircle
 10
-105.2855711102568
 20
683.478020873504
 30
0.0
 40
0.7359999997868272
100
AcDbArc
 50
89.99999999999998
 51
180.0
  0
LINE
  5
150
330
2
100
AcDbEntity
  8
AM_HID
100
AcDbLine
 10
-105.2855711102567
 20
684.2140208732906
 30
0.0
 11
-105.2855711102567
 21
684.1634011850135
 31
0.0
  0
ARC
  5
151
330
2
100
AcDbEntity
  8
AM_HID
100
AcDbCircle
 10
-105.2855711102568
 20
683.478020873504
 30
0.0
 40
0.685380311509668
100
AcDbArc
 50
89.99999999999998
 51
180.0
  0
LINE
  5
152
330
2
100
AcDbEntity
  8
AM_HID
100
AcDbLine
 10
-105.2855711102567
 20
686.3646405609588
 30
0.0
 11
-105.2855711102567
 21
686.3140208726816
 31
0.0
  0
LINE
  5
153
330
2
100
AcDbEntity
  8
AM_HID
100
AcDbLine
 10
-103.2215711108554
 20
684.2140208732907
 30
0.0
 11
-105.2855711102567
 21
684.2140208732907
 31
0.0
  0
LINE
  5
154
330
2
100
AcDbEntity
  8
AM_HID
100
AcDbLine
 10
-103.2215711108554
 20
684.2140208732906
 30
0.0
 11
-103.2215711108554
 21
684.1634011850135
 31
0.0
  0
LINE
  5
155
330
2
100
AcDbEntity
  8
AM_HID
100
AcDbLine
 10
-105.2855711102567
 20
684.1634011850137
 30
0.0
 11
-103.2215711108554
 21
684.1634011850137
 31
0.0
  0
LINE
  5
156
330
2
100
AcDbEntity
  8
AM_HID
100
AcDbLine
 10
-103.2215711108554
 20
686.364640560959
 30
0.0
 11
-105.2855711102567
 21
686.364640560959
 31
0.0
  0
LINE
  5
157
330
2
100
AcDbEntity
  8
AM_HID
100
AcDbLine
 10
-103.2215711108554
 20
686.3646405609588
 30
0.0
 11
-103.2215711108554
 21
686.3140208726816
 31
0.0
  0
LINE
  5
158
330
2
100
AcDbEntity
  8
AM_HID
100
AcDbLine
 10
-103.2215711108554
 20
686.3140208726819
 30
0.0
 11
-105.2855711102567
 21
686.3140208726819
 31
0.0
  0
LINE
  5
159
330
2
100
AcDbEntity
  8
AM_HID
100
AcDbLine
 10
-103.2215711108554
 20
683.3134208735516
 30
0.0
 11
-103.6209711107395
 21
683.3134208735516
 31
0.0
  0
ARC
  5
15A
330
2
100
AcDbEntity
  8
AM_HID
100
AcDbCircle
 10
-103.6209711107396
 20
681.8134208739865
 30
0.0
 40
1.499999999564999
100
AcDbArc
 50
89.99999999999998
 51
180.0
  0
LINE
  5
15B
330
2
100
AcDbEntity
  8
AM_HID
100
AcDbLine
 10
-103.2215711108554
 20
683.3134208735516
 30
0.0
 11
-103.2215711108554
 21
683.1982784487829
 31
0.0
  0
LINE
  5
15C
330
2
100
AcDbEntity
  8
AM_HID
100
AcDbLine
 10
-103.6209711107395
 20
683.3134208735516
 30
0.0
 11
-103.6209711107395
 21
683.1982784487829
 31
0.0
  0
LINE
  5
15D
330
2
100
AcDbEntity
  8
AM_HID
100
AcDbLine
 10
-105.1209711103046
 20
681.8134208739865
 30
0.0
 11
-105.0053405464028
 21
681.8134208739865
 31
0.0
  0
ARC
  5
15E
330
2
100
AcDbEntity
  8
AM_HID
100
AcDbCircle
 10
-107.971571109473
 20
686.6250183078189
 30
0.0
 40
0.0865507186950313
100
AcDbArc
 50
180.0
 51
310.4506060199051
  0
LINE
  5
15F
330
2
100
AcDbEntity
  8
AM_HID
100
AcDbLine
 10
-107.8418126554032
 20
686.4728251950501
 30
0.0
 11
-107.9154176721742
 21
686.559156191347
 31
0.0
  0
ARC
  5
160
330
2
100
AcDbEntity
  8
AM_HID
100
AcDbCircle
 10
-107.971571109473
 20
686.6250183078189
 30
0.0
 40
0.1999999999419955
100
AcDbArc
 50
180.0
 51
310.4506060199093
  0
LINE
  5
161
330
2
100
AcDbEntity
  8
AM_HID
100
AcDbLine
 10
-108.1715711094149
 20
686.6250183078189
 30
0.0
 11
-108.058121828168
 21
686.6250183078189
 31
0.0
  0
LINE
  5
162
330
2
100
AcDbEntity
  8
AM_HID
100
AcDbLine
 10
-103.2221711108556
 20
687.4146208723625
 30
0.0
 11
-103.2221711108556
 21
687.5280701536094
 31
0.0
  0
LINE
  5
163
330
2
100
AcDbEntity
  8
AM_HID
100
AcDbLine
 10
-103.2221711108556
 20
687.5280701536094
 30
0.0
 11
-105.2855711102337
 21
687.5280701536094
 31
0.0
  0
LINE
  5
164
330
2
100
AcDbEntity
  8
AM_HID
100
AcDbLine
 10
-105.2855711102337
 20
687.4146208723625
 30
0.0
 11
-103.2221711108556
 21
687.4146208723625
 31
0.0
  0
LINE
  5
165
330
2
100
AcDbEntity
  8
AM_HID
100
AcDbLine
 10
-105.2855711102337
 20
687.4146208723625
 30
0.0
 11
-105.2855711102337
 21
687.5280701536094
 31
0.0
  0
ARC
  5
166
330
2
100
AcDbEntity
  8
AM_HID
100
AcDbCircle
 10
-105.2855711102337
 20
683.474620873512
 30
0.0
 40
4.053449280097257
100
AcDbArc
 50
89.99999999999978
 51
130.4506060199089
  0
ARC
  5
167
330
2
100
AcDbEntity
  8
AM_HID
100
AcDbCircle
 10
-105.2855711102337
 20
683.474620873512
 30
0.0
 40
3.939999998850291
100
AcDbArc
 50
89.99999999999978
 51
130.4506060199088
  0
ELLIPSE
  5
168
330
2
100
AcDbEntity
  8
AM_HID
100
AcDbEllipse
 10
-95.11086552181263
 20
690.8140208713798
 30
0.0
 11
0.4999998847888329
 21
0.0003392140238166
 31
0.0
210
0.0
220
0.0
230
1.0
 40
0.0775063007202605
 41
1.570743744334601
 42
3.132839676499447
  0
LINE
  5
169
330
2
100
AcDbEntity
  8
AM_HID
100
AcDbLine
 10
-98.77219080043756
 20
690.8140208713765
 30
0.0
 11
-98.7215711121604
 21
690.8140208713765
 31
0.0
  0
LINE
  5
16A
330
2
100
AcDbEntity
  8
AM_HID
100
AcDbLine
 10
-96.62157111276947
 20
690.8140208713765
 30
0.0
 11
-96.57095142449231
 21
690.8140208713765
 31
0.0
  0
LINE
  5
16B
330
2
100
AcDbEntity
  8
AM_HID
100
AcDbLine
 10
-95.72097111303071
 20
690.8140208713765
 30
0.0
 11
-95.61084648319974
 21
690.8140208713765
 31
0.0
  0
LINE
  5
16C
330
2
100
AcDbEntity
  8
AM_HID
100
AcDbLine
 10
-99.82217111184127
 20
690.8146208713766
 30
0.0
 11
-99.93562039308812
 21
690.8146208713766
 31
0.0
  0
ARC
  5
16D
330
2
100
AcDbEntity
  8
AM_HID
100
AcDbCircle
 10
-103.2215711108556
 20
690.8140208713764
 30
0.0
 40
7.500599997824816
100
AcDbArc
 50
270.0000000000011
 51
0.0000000000013613
  0
LWPOLYLINE
  5
16E
330
2
100
AcDbEntity
  8
AM_HID
100
AcDbPolyline
 90
        6
 70
     0
 43
0.0
 10
54.47842884341174
 20
606.42976332065
 10
52.52632105331588
 20
606.1751684268099
 10
49.47843954399184
 20
604.5570362426514
 10
47.68840157098975
 20
602.2571351922765
 10
47.01167513204246
 20
600.2927746753872
 10
46.8677042157559
 20
598.8140208980564
  0
LWPOLYLINE
  5
16F
330
2
100
AcDbEntity
  8
AM_HID
100
AcDbPolyline
 90
        6
 70
     0
 43
0.0
 10
46.36772325436879
 20
598.7752677388428
 10
46.5212199444254
 20
600.3524813700825
 10
47.24247572305398
 20
602.4475950872573
 10
49.1501360509086
 20
604.900530235011
 10
52.39816070420158
 20
606.6263000818983
 10
54.47842884341174
 20
606.8978282950089
  0
ARC
  5
170
330
2
100
AcDbEntity
  8
AM_HID
100
AcDbCircle
 10
54.47842884341179
 20
598.8140208980567
 30
0.0
 40
7.500599997824816
100
AcDbArc
 50
90.00000000000019
 51
180.0000000000006
  0
ARC
  5
171
330
2
100
AcDbEntity
  8
AM_HID
100
AcDbCircle
 10
54.47842884341179
 20
598.8140208980564
 30
0.0
 40
4.449380310417609
100
AcDbArc
 50
90.00000000000055
 51
179.9999999999997
  0
ARC
  5
172
330
2
100
AcDbEntity
  8
AM_HID
100
AcDbCircle
 10
54.47842884341179
 20
598.8140208980564
 30
0.0
 40
4.499999998694772
100
AcDbArc
 50
90.00000000000049
 51
179.9999999999997
  0
ARC
  5
173
330
2
100
AcDbEntity
  8
AM_HID
100
AcDbCircle
 10
54.47842884341179
 20
598.8140208980564
 30
0.0
 40
6.599999998085766
100
AcDbArc
 50
90.00000000000033
 51
179.9999999999998
  0
ARC
  5
174
330
2
100
AcDbEntity
  8
AM_HID
100
AcDbCircle
 10
54.47842884341179
 20
598.8140208980564
 30
0.0
 40
6.650619686362924
100
AcDbArc
 50
90.00000000000033
 51
179.9999999999998
  0
ARC
  5
175
330
2
100
AcDbEntity
  8
AM_HID
100
AcDbCircle
 10
54.47902884341619
 20
598.8134208980567
 30
0.0
 40
3.286550717767154
100
AcDbArc
 50
90.00000000007331
 51
180.0
  0
ARC
  5
176
330
2
100
AcDbEntity
  8
AM_HID
100
AcDbCircle
 10
54.47902884341619
 20
598.8134208980567
 30
0.0
 40
3.399999999014119
100
AcDbArc
 50
90.00000000007089
 51
180.0
  0
LINE
  5
177
330
2
100
AcDbEntity
  8
AM_HID
100
AcDbLine
 10
59.42842884197614
 20
593.5636362614421
 30
0.0
 11
59.42842884197614
 21
603.0030234616161
 31
0.0
  0
LINE
  5
178
330
2
100
AcDbEntity
  8
AM_HID
100
AcDbLine
 10
59.31497956072928
 20
603.0030234616161
 30
0.0
 11
59.31497956072928
 21
597.3420291559848
 31
0.0
  0
ARC
  5
179
330
2
100
AcDbEntity
  8
AM_HID
100
AcDbCircle
 10
56.54242884279262
 20
606.153420895921
 30
0.0
 40
4.053449280097257
100
AcDbArc
 50
270.0000000000002
 51
310.4506060199498
  0
ARC
  5
17A
330
2
100
AcDbEntity
  8
AM_HID
100
AcDbCircle
 10
56.54242884279262
 20
606.153420895921
 30
0.0
 40
3.939999998850291
100
AcDbArc
 50
270.0000000000002
 51
310.4506060199573
  0
LWPOLYLINE
  5
17B
330
2
100
AcDbEntity
  8
AM_VIS
100
AcDbPolyline
 90
        3
 70
     0
 43
0.0
 10
54.24491107917345
 20
586.1277992533461
 10
53.71298468907617
 20
586.2567864875066
 10
53.13008384720479
 20
586.4869958463766
  0
CIRCLE
  5
17C
330
2
100
AcDbEntity
  8
AM_HID
100
AcDbCircle
 10
54.97842884326672
 20
590.3140209005214
 30
0.0
 40
2.101631947500118
  0
CIRCLE
  5
17D
330
2
100
AcDbEntity
  8
AM_VIS
100
AcDbCircle
 10
54.97842884326672
 20
590.3140209005214
 30
0.0
 40
2.249999999346853
  0
CIRCLE
  5
17E
330
2
100
AcDbEntity
  8
AM_VIS
100
AcDbCircle
 10
54.97842884326672
 20
590.3140209005214
 30
0.0
 40
2.181052492900859
  0
CIRCLE
  5
17F
330
2
100
AcDbEntity
  8
AM_VIS
100
AcDbCircle
 10
54.97842884326672
 20
590.3140209005214
 30
0.0
 40
1.6499999995215
  0
LWPOLYLINE
  5
180
330
2
100
AcDbEntity
  8
AM_VIS
100
AcDbPolyline
 90
       21
 70
     0
 43
0.0
 10
53.13008384720479
 20
586.4869958463766
 10
52.60887688029663
 20
586.7858877561652
 10
51.97588871237076
 20
587.3061557519687
 10
51.45268425447103
 20
587.9409163760433
 10
51.05238276749457
 20
588.6865497946538
 10
50.80782502712271
 20
589.4963633938084
 10
50.72842884449972
 20
590.3140209005214
 10
50.80776482566284
 20
591.131371279358
 10
51.05220388548957
 20
591.9410604115497
 10
51.45239313505988
 20
592.6866928487624
 10
51.97550169183
 20
593.321499663985
 10
52.60865583902841
 20
593.8420055798961
 10
53.35283165949852
 20
594.2408432527095
 10
54.16152107027688
 20
594.4847716338964
 10
54.97842884326667
 20
594.5640208992883
 10
55.79533661625646
 20
594.4847716338964
 10
56.60402602703482
 20
594.2408432527095
 10
57.34820184750493
 20
593.8420055798961
 10
57.98135599470334
 20
593.3214996639849
 10
58.50446455147346
 20
592.6866928487624
 10
58.58441069104287
 20
592.5633307731346
  0
LWPOLYLINE
  5
181
330
2
100
AcDbEntity
  8
AM_HID
100
AcDbPolyline
 90
       10
 70
     0
 43
0.0
 10
59.15745672808577
 20
593.5093698916177
 10
58.6985555355418
 20
594.0341475927977
 10
57.91460623119144
 20
594.6800951630865
 10
56.99279521088079
 20
595.1750806115255
 10
55.99079380496505
 20
595.4778387916879
 10
54.97842884326757
 20
595.5762115372571
 10
53.9670258914009
 20
595.4780274401971
 10
52.96586750350127
 20
595.1758287939758
 10
52.0446797073846
 20
594.6817286326282
 10
51.3404915407732
 20
594.11464336298
  0
LINE
  5
182
330
2
100
AcDbEntity
  8
AM_HID
100
AcDbLine
 10
59.31497956072928
 20
597.3420291559848
 30
0.0
 11
51.19247812564902
 21
597.3420291559848
 31
0.0
  0
ARC
  5
183
330
2
100
AcDbEntity
  8
AM_HID
100
AcDbCircle
 10
54.97842884326764
 20
590.3140209005234
 30
0.0
 40
5.149999998509106
100
AcDbArc
 50
37.4020844499629
 51
133.7471113213371
  0
LWPOLYLINE
  5
184
330
2
100
AcDbEntity
  8
AM_HID
100
AcDbPolyline
 90
       89
 70
     0
 43
0.0
 10
46.8677042157559
 20
598.8140208980564
 10
46.86776869330185
 20
598.7190798658014
 10
46.86783330378728
 20
598.6241400202491
 10
46.86789804721058
 20
598.5292013638435
 10
46.86796292356996
 20
598.434263899029
 10
46.86802793286381
 20
598.3393276282496
 10
46.86809307509054
 20
598.2443925539495
 10
46.86815835024833
 20
598.1494586785727
 10
46.86822375833549
 20
598.0545260045635
 10
46.86828929935041
 20
597.9595945343654
 10
46.8683549732915
 20
597.8646642704229
 10
46.86842078015695
 20
597.7697352151798
 10
46.86848671994494
 20
597.6748073710798
 10
46.8685527926541
 20
597.5798807405672
 10
46.8686189982825
 20
597.4849553260854
 10
46.86868533682843
 20
597.3900311300788
 10
46.86875180829031
 20
597.2951081549905
 10
46.86881841266631
 20
597.2001864032648
 10
46.86888514995485
 20
597.1052658773453
 10
46.86895202015409
 20
597.0103465796758
 10
46.86901902326212
 20
596.9154285126997
 10
46.86908615927769
 20
596.8205116788607
 10
46.86915342819884
 20
596.7255960806027
 10
46.86922083002355
 20
596.6306817203689
 10
46.86928836475067
 20
596.5357686006032
 10
46.86935603237782
 20
596.4408567237487
 10
46.86942383290386
 20
596.3459460922494
 10
46.86949176632663
 20
596.2510367085483
 10
46.86955983264454
 20
596.156128575089
 10
46.86962803185577
 20
596.0612216943149
 10
46.86969636395872
 20
595.9663160686695
 10
46.86976482895125
 20
595.8714117005959
 10
46.86983342683208
 20
595.7765085925372
 10
46.86990215759919
 20
595.6816067469372
 10
46.86997102125076
 20
595.5867061662386
 10
46.87004001778541
 20
595.491806852885
 10
46.87010914720076
 20
595.3969088093193
 10
46.87017840949533
 20
595.3020120379846
 10
46.87024780466742
 20
595.2071165413242
 10
46.8703173327151
 20
595.112222321781
 10
46.87038699363688
 20
595.0173293817981
 10
46.87045678743039
 20
594.9224377238185
 10
46.87052671409435
 20
594.8275473502851
 10
46.87059677362685
 20
594.732658263641
 10
46.87066696602596
 20
594.6377704663289
 10
46.87073729128985
 20
594.5428839607916
 10
46.87080774941683
 20
594.4479987494721
 10
46.87087834040494
 20
594.3531148348133
 10
46.87094906425272
 20
594.2582322192578
 10
46.87101992095779
 20
594.1633509052483
 10
46.87109091051889
 20
594.0684708952274
 10
46.87116203293385
 20
593.9735921916381
 10
46.87123328820075
 20
593.8787147969226
 10
46.87130467631834
 20
593.7838387135238
 10
46.871376197284
 20
593.6889639438843
 10
46.87144785109637
 20
593.5940904904464
 10
46.87151963775352
 20
593.4992183556529
 10
46.87159155725362
 20
593.4043475419458
 10
46.87166360959452
 20
593.309478051768
 10
46.87173579477496
 20
593.2146098875616
 10
46.87180811279256
 20
593.119743051769
 10
46.87188056364573
 20
593.0248775468327
 10
46.87195314733242
 20
592.9300133751946
 10
46.87202586385081
 20
592.8351505392974
 10
46.87209871319919
 20
592.740289041583
 10
46.87217169537553
 20
592.6454288844938
 10
46.8722448103781
 20
592.5505700704718
 10
46.87231805820476
 20
592.4557126019592
 10
46.8723914388538
 20
592.3608564813982
 10
46.87246495232341
 20
592.2660017112304
 10
46.87253859861141
 20
592.1711482938983
 10
46.87261237771622
 20
592.0762962318438
 10
46.87268628963579
 20
591.9814455275086
 10
46.87276033436808
 20
591.8865961833348
 10
46.8728345119116
 20
591.7917482017641
 10
46.87290882226398
 20
591.6969015852386
 10
46.87298326542349
 20
591.6020563361999
 10
46.87305784138835
 20
591.5072124570897
 10
46.87313255015635
 20
591.41236995035
 10
46.87320739172605
 20
591.3175288184223
 10
46.87328236609494
 20
591.2226890637482
 10
46.8733574732613
 20
591.1278506887697
 10
46.87343271322345
 20
591.0330136959279
 10
46.87350808597921
 20
590.9381780876647
 10
46.87358359152665
 20
590.8433438664214
 10
46.87365922986384
 20
590.7485110346397
 10
46.87373500098885
 20
590.6536795947609
 10
46.87381090489975
 20
590.5588495492264
 10
46.8738869415946
 20
590.4640209004777
  0
LWPOLYLINE
  5
185
330
2
100
AcDbEntity
  8
AM_HID
100
AcDbPolyline
 90
       89
 70
     0
 43
0.0
 10
46.3739059802075
 20
590.4182332004071
 10
46.37382994351264
 20
590.5131417384975
 10
46.37375403960186
 20
590.6080516745507
 10
46.37367826847685
 20
590.7029630061226
 10
46.37360263013954
 20
590.7978757307703
 10
46.3735271245921
 20
590.89278984605
 10
46.37345175183634
 20
590.9877053495182
 10
46.37337651187443
 20
591.0826222387313
 10
46.37330140470772
 20
591.1775405112457
 10
46.37322643033883
 20
591.2724601646178
 10
46.37315158876936
 20
591.367381196404
 10
46.37307688000123
 20
591.4623036041604
 10
46.37300230403639
 20
591.5572273854431
 10
46.37292786087676
 20
591.6521525378088
 10
46.37285355052449
 20
591.7470790588133
 10
46.37277937298108
 20
591.842006946013
 10
46.37270532824868
 20
591.9369361969637
 10
46.37263141632923
 20
592.0318668092217
 10
46.3725576372243
 20
592.1267987803428
 10
46.3724839909363
 20
592.2217321078833
 10
46.37241047746681
 20
592.316666789399
 10
46.37233709681765
 20
592.4116028224459
 10
46.372263848991
 20
592.5065402045799
 10
46.37219073398841
 20
592.6014789333565
 10
46.37211775181208
 20
592.6964190063322
 10
46.3720449024637
 20
592.7913604210623
 10
46.37197218594531
 20
592.8863031751027
 10
46.37189960225862
 20
592.9812472660091
 10
46.37182715140546
 20
593.0761926913371
 10
46.37175483338785
 20
593.1711394486426
 10
46.37168264820764
 20
593.2660875354812
 10
46.3716105958664
 20
593.3610369494081
 10
46.37153867636641
 20
593.4559876879791
 10
46.37146688970938
 20
593.55093974875
 10
46.37139523589678
 20
593.6458931292758
 10
46.37132371493112
 20
593.7408478271121
 10
46.37125232681387
 20
593.8358038398145
 10
46.37118107154674
 20
593.9307611649383
 10
46.37110994913189
 20
594.0257198000385
 10
46.37103895957091
 20
594.1206797426712
 10
46.37096810286561
 20
594.2156409903908
 10
46.37089737901795
 20
594.3106035407531
 10
46.37082678802971
 20
594.4055673913132
 10
46.37075632990274
 20
594.5005325396262
 10
46.37068600463874
 20
594.5954989832472
 10
46.37061581223963
 20
594.6904667197315
 10
46.37054575270735
 20
594.7854357466338
 10
46.37047582604327
 20
594.8804060615097
 10
46.37040603224977
 20
594.9753776619139
 10
46.37033637132822
 20
595.0703505454015
 10
46.37026684328043
 20
595.1653247095272
 10
46.37019744810823
 20
595.2603001518461
 10
46.37012818581365
 20
595.3552768699132
 10
46.37005905639819
 20
595.4502548612831
 10
46.36999005986377
 20
595.5452341235107
 10
46.36992119621209
 20
595.6402146541507
 10
46.36985246544509
 20
595.7351964507583
 10
46.36978386756425
 20
595.8301795108877
 10
46.3697154025715
 20
595.9251638320934
 10
46.36964707046866
 20
596.0201494119309
 10
46.36957887125731
 20
596.115136247954
 10
46.36951080493941
 20
596.2101243377178
 10
46.36944287151675
 20
596.3051136787766
 10
46.36937507099071
 20
596.4001042686851
 10
46.36930740336345
 20
596.4950961049977
 10
46.36923986863656
 20
596.5900891852686
 10
46.36917246681162
 20
596.6850835070528
 10
46.36910519789057
 20
596.7800790679041
 10
46.36903806187513
 20
596.8750758653773
 10
46.36897105876698
 20
596.9700738970264
 10
46.36890418856774
 20
597.065073160406
 10
46.3688374512792
 20
597.1600736530701
 10
46.3687708469032
 20
597.2550753725733
 10
46.36870437544155
 20
597.3500783164693
 10
46.3686380368955
 20
597.4450824823127
 10
46.36857183126699
 20
597.5400878676575
 10
46.36850575855794
 20
597.6350944700579
 10
46.36843981876984
 20
597.7301022870676
 10
46.36837401190439
 20
597.8251113162409
 10
46.36830833796341
 20
597.9201215551322
 10
46.36824279694837
 20
598.0151330012948
 10
46.36817738886122
 20
598.1101456522832
 10
46.36811211370343
 20
598.205159505651
 10
46.36804697147669
 20
598.3001745589522
 10
46.36798196218285
 20
598.3951908097406
 10
46.36791708582348
 20
598.49020825557
 10
46.36785234240028
 20
598.5852268939945
 10
46.36778773191474
 20
598.6802467225676
 10
46.36772325436879
 20
598.7752677388431
  0
LINE
  5
186
330
2
100
AcDbEntity
  8
AM_HID
100
AcDbLine
 10
46.97782884558705
 20
590.4640209004781
 30
0.0
 11
46.97782884558705
 21
598.8140208980564
 31
0.0
  0
LINE
  5
187
330
2
100
AcDbEntity
  8
AM_HID
100
AcDbLine
 10
50.02904853299424
 20
590.4640209004781
 30
0.0
 11
50.02904853299424
 21
598.8140208980564
 31
0.0
  0
LINE
  5
188
330
2
100
AcDbEntity
  8
AM_HID
100
AcDbLine
 10
49.97842884471708
 20
590.4640209004781
 30
0.0
 11
49.97842884471708
 21
598.8140208980564
 31
0.0
  0
LINE
  5
189
330
2
100
AcDbEntity
  8
AM_HID
100
AcDbLine
 10
47.87842884532619
 20
590.4640209004781
 30
0.0
 11
47.87842884532619
 21
598.8140208980564
 31
0.0
  0
LINE
  5
18A
330
2
100
AcDbEntity
  8
AM_HID
100
AcDbLine
 10
47.82780915704904
 20
598.8140208980564
 30
0.0
 11
47.82780915704904
 21
590.4640209004781
 31
0.0
  0
LWPOLYLINE
  5
18B
330
2
100
AcDbEntity
  8
AM_HID
100
AcDbPolyline
 90
        3
 70
     0
 43
0.0
 10
51.19247812564902
 20
597.3420291559848
 10
51.19135283416699
 20
595.7602668081773
 10
51.19019066658177
 20
594.178854613815
  0
LINE
  5
18C
330
2
100
AcDbEntity
  8
AM_HID
100
AcDbLine
 10
51.07902884440216
 20
598.8134208980567
 30
0.0
 11
51.07902884440216
 21
594.1788546138147
 31
0.0
  0
ELLIPSE
  5
18D
330
2
100
AcDbEntity
  8
AM_HID
100
AcDbEllipse
 10
46.36772325436879
 20
598.8140208980564
 30
0.0
 11
0.499999884788834
 21
0.0003392140220913
 31
0.0
210
0.0
220
0.0
230
1.0
 40
0.0775063007203077
 41
-1.570848909254958
 42
-0.0087529770902261
  0
LINE
  5
18E
330
2
100
AcDbEntity
  8
AM_HID
100
AcDbLine
 10
46.97782884558705
 20
598.8140208980564
 30
0.0
 11
46.86770421575602
 21
598.8140208980564
 31
0.0
  0
LINE
  5
18F
330
2
100
AcDbEntity
  8
AM_HID
100
AcDbLine
 10
50.02904853299401
 20
598.8140208980564
 30
0.0
 11
49.97842884471686
 21
598.8140208980564
 31
0.0
  0
LINE
  5
190
330
2
100
AcDbEntity
  8
AM_HID
100
AcDbLine
 10
47.87842884532596
 20
598.8140208980564
 30
0.0
 11
47.82780915704882
 21
598.8140208980564
 31
0.0
  0
LINE
  5
191
330
2
100
AcDbEntity
  8
AM_HID
100
AcDbLine
 10
51.07902884440216
 20
598.8134208980567
 30
0.0
 11
51.19247812564902
 21
598.8134208980567
 31
0.0
  0
LINE
  5
192
330
2
100
AcDbEntity
  8
AM_HID
100
AcDbLine
 10
51.19247812564902
 20
597.3420291559848
 30
0.0
 11
51.19247812564902
 21
598.8134208980567
 31
0.0
  0
ELLIPSE
  5
193
330
2
100
AcDbEntity
  8
AM_HID
100
AcDbEllipse
 10
46.3739059802075
 20
590.4640209004781
 30
0.0
 11
0.4999998388380427
 21
0.0004012691509499
 31
0.0
210
0.0
220
0.0
230
0.9999999999999998
 40
0.0915753709254243
 41
-1.570869819561064
 42
-0.0087634700011381
  0
LWPOLYLINE
  5
194
330
2
100
AcDbEntity
  8
AM_HID
100
AcDbPolyline
 90
        6
 70
     0
 43
0.0
 10
46.8738869415946
 20
590.464020900478
 10
46.85266137575263
 20
590.2208371829751
 10
46.53448818498782
 20
589.5511344476521
 10
46.11373201006279
 20
589.2208418586366
 10
45.75169887418257
 20
589.0948562575519
 10
45.47842884602175
 20
589.0678375870573
  0
LINE
  5
195
330
2
100
AcDbEntity
  8
AM_HID
100
AcDbLine
 10
45.47842884602187
 20
589.0678375870574
 30
0.0
 11
45.47842884602187
 21
589.521275833755
 31
0.0
  0
LWPOLYLINE
  5
196
330
2
100
AcDbEntity
  8
AM_HID
100
AcDbPolyline
 90
        6
 70
     0
 43
0.0
 10
45.47842884602175
 20
589.521275833755
 10
45.65383837478282
 20
589.5386385539276
 10
45.88621338610505
 20
589.6195967273878
 10
46.15623910857698
 20
589.8318219381149
 10
46.36032960866919
 20
590.2620408686552
 10
46.3739059802075
 20
590.4182332004071
  0
LINE
  5
197
330
2
100
AcDbEntity
  8
AM_HID
100
AcDbLine
 10
46.97782884558705
 20
590.4640209004781
 30
0.0
 11
46.8738869415946
 21
590.4640209004781
 31
0.0
  0
ARC
  5
198
330
2
100
AcDbEntity
  8
AM_HID
100
AcDbCircle
 10
45.47842884602181
 20
590.4640209004782
 30
0.0
 40
1.499399999565175
100
AcDbArc
 50
269.9999999999989
 51
359.9999999999969
  0
LINE
  5
199
330
2
100
AcDbEntity
  8
AM_HID
100
AcDbLine
 10
45.47842884602187
 20
588.9646209009131
 30
0.0
 11
45.47842884602187
 21
589.0678375870574
 31
0.0
  0
LWPOLYLINE
  5
19A
330
2
100
AcDbEntity
  8
AM_VIS
100
AcDbPolyline
 90
        9
 70
     0
 43
0.0
 10
46.92962168854307
 20
587.8838297657869
 10
47.31413321589116
 20
587.9210380254148
 10
47.69482558503296
 20
588.0355875669608
 10
48.04520037591931
 20
588.2229377748192
 10
48.34334900704869
 20
588.4675389297997
 10
48.58915287605964
 20
588.7652107991748
 10
48.77730286308031
 20
589.1149425072448
 10
48.89228553821886
 20
589.4948437413735
 10
48.92962168796305
 20
589.8784758323203
  0
LINE
  5
19B
330
2
100
AcDbEntity
  8
AM_VIS
100
AcDbLine
 10
46.92962168854319
 20
587.8838297657869
 30
0.0
 11
46.92962168854319
 21
587.8523620449502
 31
0.0
  0
LWPOLYLINE
  5
19C
330
2
100
AcDbEntity
  8
AM_VIS
100
AcDbPolyline
 90
        9
 70
     0
 43
0.0
 10
46.92962168854307
 20
587.8523620449501
 10
47.31413338192669
 20
587.8895704570153
 10
47.69482607691919
 20
588.0041205379027
 10
48.04520132759558
 20
588.1914717808288
 10
48.34335047481807
 20
588.4360745398306
 10
48.58915354619091
 20
588.7337468808328
 10
48.77730309822641
 20
589.0834792563866
 10
48.89228558374577
 20
589.4633813332411
 10
48.92962168796305
 20
589.8470143678915
  0
LINE
  5
19D
330
2
100
AcDbEntity
  8
AM_HID
100
AcDbLine
 10
50.02904853299401
 20
590.4640209004781
 30
0.0
 11
49.97842884471686
 21
590.4640209004781
 31
0.0
  0
LINE
  5
19E
330
2
100
AcDbEntity
  8
AM_HID
100
AcDbLine
 10
47.87842884532596
 20
590.4640209004781
 30
0.0
 11
47.82780915704882
 21
590.4640209004781
 31
0.0
  0
ARC
  5
19F
330
2
100
AcDbEntity
  8
AM_HID
100
AcDbCircle
 10
45.4784288460217
 20
590.4640209004782
 30
0.0
 40
2.399999999304389
100
AcDbArc
 50
269.9999999999983
 51
359.9999999999974
  0
LINE
  5
1A0
330
2
100
AcDbEntity
  8
AM_HID
100
AcDbLine
 10
45.47842884602164
 20
588.0640209011742
 30
0.0
 11
45.47842884602164
 21
588.1146405894513
 31
0.0
  0
ARC
  5
1A1
330
2
100
AcDbEntity
  8
AM_HID
100
AcDbCircle
 10
45.4784288460217
 20
590.4640209004782
 30
0.0
 40
2.34938031102723
100
AcDbArc
 50
269.9999999999982
 51
359.9999999999973
  0
ARC
  5
1A2
330
2
100
AcDbEntity
  8
AM_HID
100
AcDbCircle
 10
45.4784288460217
 20
590.4640209004782
 30
0.0
 40
4.550619686972546
100
AcDbArc
 50
269.9999999999982
 51
359.999999999998
  0
LINE
  5
1A3
330
2
100
AcDbEntity
  8
AM_HID
100
AcDbLine
 10
45.47842884602164
 20
585.9134012135058
 30
0.0
 11
45.47842884602164
 21
585.964020901783
 31
0.0
  0
ARC
  5
1A4
330
2
100
AcDbEntity
  8
AM_HID
100
AcDbCircle
 10
45.4784288460217
 20
590.4640209004782
 30
0.0
 40
4.499999998695383
100
AcDbArc
 50
269.9999999999982
 51
359.999999999998
  0
LWPOLYLINE
  5
1A5
330
2
100
AcDbEntity
  8
AM_HID
100
AcDbPolyline
 90
        7
 70
     0
 43
0.0
 10
51.19019066658177
 20
594.1788546138146
 10
51.19693783104151
 20
594.1448281025628
 10
51.21622264808002
 20
594.1159582327311
 10
51.245025722538
 20
594.096714983995
 10
51.27902884434411
 20
594.0899499981249
 10
51.31303196615021
 20
594.096714983995
 10
51.3404915407732
 20
594.11464336298
  0
LINE
  5
1A6
330
2
100
AcDbEntity
  8
AM_HID
100
AcDbLine
 10
51.41732417140667
 20
594.0343748488319
 30
0.0
 11
51.3404915407732
 21
594.11464336298
 31
0.0
  0
ARC
  5
1A7
330
2
100
AcDbEntity
  8
AM_HID
100
AcDbCircle
 10
51.27902884434405
 20
594.1788546138147
 30
0.0
 40
0.1999999999420787
100
AcDbArc
 50
180.0
 51
313.7471113213373
  0
LINE
  5
1A8
330
2
100
AcDbEntity
  8
AM_HID
100
AcDbLine
 10
51.07902884440216
 20
594.1788546138147
 30
0.0
 11
51.19019066658177
 21
594.1788546138147
 31
0.0
  0
LWPOLYLINE
  5
1A9
330
2
100
AcDbEntity
  8
AM_HID
100
AcDbPolyline
 90
        3
 70
     0
 43
0.0
 10
59.3177291740468
 20
593.5636362614415
 10
59.31632805852735
 20
595.4525813176967
 10
59.31497956072917
 20
597.3420291559848
  0
POLYLINE
  5
1AA
330
2
100
AcDbEntity
  8
AM_VIS
100
AcDb2dPolyline
 66
     1
 10
0.0
 20
0.0
 30
0.0
 70
     2
  0
VERTEX
  5
1AB
330
1AA
100
AcDbEntity
  8
AM_VIS
100
AcDbVertex
100
AcDb2dVertex
 10
59.19230877650017
 20
590.8669367149189
 30
0.0
 42
-0.0486683041799221
  0
VERTEX
  5
1AC
330
1AA
100
AcDbEntity
  8
AM_VIS
100
AcDbVertex
100
AcDb2dVertex
 10
59.21971365153712
 20
590.0419856736602
 30
0.0
 42
-0.0486683041799269
 70
     1
  0
VERTEX
  5
1AD
330
1AA
100
AcDbEntity
  8
AM_VIS
100
AcDbVertex
100
AcDb2dVertex
 10
59.08714248862356
 20
589.2272954660268
 30
0.0
 42
-0.0473731732617391
  0
VERTEX
  5
1AE
330
1AA
100
AcDbEntity
  8
AM_VIS
100
AcDbVertex
100
AcDb2dVertex
 10
58.80916042985649
 20
588.473370064262
 30
0.0
 42
-0.0473731732617383
 70
     1
  0
VERTEX
  5
1AF
330
1AA
100
AcDbEntity
  8
AM_VIS
100
AcDbVertex
100
AcDb2dVertex
 10
58.39424177122992
 20
587.7852421378224
 30
0.0
  0
SEQEND
  5
1B0
330
1AA
100
AcDbEntity
  8
AM_VIS
  0
LWPOLYLINE
  5
1B1
330
2
100
AcDbEntity
  8
AM_VIS
100
AcDbPolyline
 90
        3
 70
     0
 43
0.0
 10
58.58441069104287
 20
592.5633307731329
 10
59.02461413037372
 20
591.6143610913632
 10
59.19230877650022
 20
590.8669367149191
  0
ELLIPSE
  5
1B2
330
2
100
AcDbEntity
  8
AM_VIS
100
AcDbEllipse
 10
58.58706544506208
 20
591.0047217714094
 30
0.0
 11
1.649997929244994
 21
0.0026137919161157
 31
0.0
210
0.0
220
0.0
230
1.0
 40
0.0903825181241512
 41
-1.195356885955439
 42
-0.01752502757686
  0
LINE
  5
1B3
330
2
100
AcDbEntity
  8
AM_VIS
100
AcDbLine
 10
60.47842884167152
 20
590.7631070713298
 30
0.0
 11
60.23681414159182
 21
591.0047217714095
 31
0.0
  0
LWPOLYLINE
  5
1B4
330
2
100
AcDbEntity
  8
AM_HID
100
AcDbPolyline
 90
        8
 70
     0
 43
0.0
 10
59.15745672808577
 20
593.5093698916177
 10
59.16529661835648
 20
593.5004111600278
 10
59.19424894352426
 20
593.4810684594946
 10
59.22842884203408
 20
593.4742683281872
 10
59.26260874054378
 20
593.4810684594946
 10
59.29156106571156
 20
593.5004111600278
 10
59.31094701769018
 20
593.5294321808701
 10
59.3177291740468
 20
593.5636362614416
  0
LINE
  5
1B5
330
2
100
AcDbEntity
  8
AM_HID
100
AcDbLine
 10
59.06955033740735
 20
593.4421553133696
 30
0.0
 11
59.15745672808589
 21
593.5093698916177
 31
0.0
  0
LINE
  5
1B6
330
2
100
AcDbEntity
  8
AM_HID
100
AcDbLine
 10
59.42842884197614
 20
593.5636362614421
 30
0.0
 11
59.3177291740468
 21
593.5636362614417
 31
0.0
  0
ARC
  5
1B7
330
2
100
AcDbEntity
  8
AM_HID
100
AcDbCircle
 10
59.22842884203413
 20
593.5636362614412
 30
0.0
 40
0.1999999999420787
100
AcDbArc
 50
217.4020844499618
 51
0.0000000002197891
  0
LINE
  5
1B8
330
2
100
AcDbEntity
  8
AM_HID
100
AcDbLine
 10
54.47902884341203
 20
602.2134208970708
 30
0.0
 11
54.47902884341203
 21
602.099971615824
 31
0.0
  0
LINE
  5
1B9
330
2
100
AcDbEntity
  8
AM_HID
100
AcDbLine
 10
54.47902884341203
 20
602.099971615824
 30
0.0
 11
56.54242884279267
 21
602.099971615824
 31
0.0
  0
LINE
  5
1BA
330
2
100
AcDbEntity
  8
AM_HID
100
AcDbLine
 10
56.54242884279267
 20
602.2134208970708
 30
0.0
 11
54.47902884341203
 21
602.2134208970708
 31
0.0
  0
LINE
  5
1BB
330
2
100
AcDbEntity
  8
AM_HID
100
AcDbLine
 10
56.54242884279267
 20
602.2134208970708
 30
0.0
 11
56.54242884279267
 21
602.099971615824
 31
0.0
  0
LWPOLYLINE
  5
1BC
330
2
100
AcDbEntity
  8
AM_VIS
100
AcDbPolyline
 90
        2
 70
     0
 43
0.0
 10
54.55558954882895
 20
586.0851076925449
 10
54.24491107917345
 20
586.1277992533461
  0
LINE
  5
1BD
330
2
100
AcDbEntity
  8
AM_VIS
100
AcDbLine
 10
54.24491107917356
 20
584.9984524954304
 30
0.0
 11
54.24491107917356
 21
586.1277992533463
 31
0.0
  0
LINE
  5
1BE
330
2
100
AcDbEntity
  8
AM_VIS
100
AcDbLine
 10
54.24491107917356
 20
584.9984524954304
 30
0.0
 11
54.47934267247297
 21
584.7640209021311
 31
0.0
  0
POLYLINE
  5
1BF
330
2
100
AcDbEntity
  8
AM_VIS
100
AcDb2dPolyline
 66
     1
 10
0.0
 20
0.0
 30
0.0
 70
     2
  0
VERTEX
  5
1C0
330
1BF
100
AcDbEntity
  8
AM_VIS
100
AcDbVertex
100
AcDb2dVertex
 10
58.39424177122992
 20
587.7852421378224
 30
0.0
 42
-0.0352150037074917
  0
VERTEX
  5
1C1
330
1BF
100
AcDbEntity
  8
AM_VIS
100
AcDbVertex
100
AcDb2dVertex
 10
57.85896848384386
 20
587.2138646507223
 30
0.0
 42
-0.0526434863305221
 70
     1
  0
VERTEX
  5
1C2
330
1BF
100
AcDbEntity
  8
AM_VIS
100
AcDbVertex
100
AcDb2dVertex
 10
57.43900172000286
 20
586.899598062409
 30
0.0
 42
-0.0164366700530604
  0
VERTEX
  5
1C3
330
1BF
100
AcDbEntity
  8
AM_VIS
100
AcDbVertex
100
AcDb2dVertex
 10
56.94963532037099
 20
586.6294787416032
 30
0.0
 42
-0.0132411354035546
 70
     1
  0
VERTEX
  5
1C4
330
1BF
100
AcDbEntity
  8
AM_VIS
100
AcDbVertex
100
AcDb2dVertex
 10
56.32340797473301
 20
586.3308218707315
 30
0.0
 42
-0.0702201820384936
  0
VERTEX
  5
1C5
330
1BF
100
AcDbEntity
  8
AM_VIS
100
AcDbVertex
100
AcDb2dVertex
 10
55.61140306729493
 20
586.1273775713591
 30
0.0
 42
-0.0490863935186885
 70
     1
  0
VERTEX
  5
1C6
330
1BF
100
AcDbEntity
  8
AM_VIS
100
AcDbVertex
100
AcDb2dVertex
 10
54.55558954882889
 20
586.0851076925451
 30
0.0
  0
SEQEND
  5
1C7
330
1BF
100
AcDbEntity
  8
AM_VIS
  0
POLYLINE
  5
1C8
330
2
100
AcDbEntity
  8
AM_VIS
100
AcDb2dPolyline
 66
     1
 10
0.0
 20
0.0
 30
0.0
 70
     2
  0
VERTEX
  5
1C9
330
1C8
100
AcDbEntity
  8
AM_VIS
100
AcDbVertex
100
AcDb2dVertex
 10
54.24491107917351
 20
584.9984524954304
 30
0.0
 42
0.0226427281712843
  0
VERTEX
  5
1CA
330
1C8
100
AcDbEntity
  8
AM_VIS
100
AcDbVertex
100
AcDb2dVertex
 10
54.92982797776829
 20
585.0295132695976
 30
0.0
 42
0.0389043130064898
 70
     1
  0
VERTEX
  5
1CB
330
1C8
100
AcDbEntity
  8
AM_VIS
100
AcDbVertex
100
AcDb2dVertex
 10
55.32361776644274
 20
585.0964476538535
 30
0.0
 42
0.0508524550882778
  0
VERTEX
  5
1CC
330
1C8
100
AcDbEntity
  8
AM_VIS
100
AcDbVertex
100
AcDb2dVertex
 10
57.05712775153478
 20
585.724816718217
 30
0.0
 42
0.0694657114894024
 70
     1
  0
VERTEX
  5
1CD
330
1C8
100
AcDbEntity
  8
AM_VIS
100
AcDbVertex
100
AcDb2dVertex
 10
58.18269490313065
 20
586.4753182689735
 30
0.0
 42
0.0458599851803435
  0
VERTEX
  5
1CE
330
1C8
100
AcDbEntity
  8
AM_VIS
100
AcDbVertex
100
AcDb2dVertex
 10
59.07626640150391
 20
587.4299865659944
 30
0.0
 42
0.060141431047033
 70
     1
  0
VERTEX
  5
1CF
330
1C8
100
AcDbEntity
  8
AM_VIS
100
AcDbVertex
100
AcDb2dVertex
 10
59.5901672768685
 20
588.2862162131175
 30
0.0
 42
0.0222762175007335
  0
VERTEX
  5
1D0
330
1C8
100
AcDbEntity
  8
AM_VIS
100
AcDbVertex
100
AcDb2dVertex
 10
59.86120593748371
 20
588.9730176844206
 30
0.0
 42
0.018218639075978
 70
     1
  0
VERTEX
  5
1D1
330
1C8
100
AcDbEntity
  8
AM_VIS
100
AcDbVertex
100
AcDb2dVertex
 10
60.12355180415494
 20
589.8366941099631
 30
0.0
 42
0.0404716002448949
  0
VERTEX
  5
1D2
330
1C8
100
AcDbEntity
  8
AM_VIS
100
AcDbVertex
100
AcDb2dVertex
 10
60.20183195792293
 20
590.2729028132954
 30
0.0
 42
0.0244555349775008
 70
     1
  0
VERTEX
  5
1D3
330
1C8
100
AcDbEntity
  8
AM_VIS
100
AcDbVertex
100
AcDb2dVertex
 10
60.23681414159177
 20
591.0047217714095
 30
0.0
  0
SEQEND
  5
1D4
330
1C8
100
AcDbEntity
  8
AM_VIS
  0
POLYLINE
  5
1D5
330
2
100
AcDbEntity
  8
AM_VIS
100
AcDb2dPolyline
 66
     1
 10
0.0
 20
0.0
 30
0.0
 70
     2
  0
VERTEX
  5
1D6
330
1D5
100
AcDbEntity
  8
AM_VIS
100
AcDbVertex
100
AcDb2dVertex
 10
54.47934267247291
 20
584.7640209021311
 30
0.0
 42
0.0984993638832344
  0
VERTEX
  5
1D7
330
1D5
100
AcDbEntity
  8
AM_VIS
100
AcDbVertex
100
AcDb2dVertex
 10
56.77515234937136
 20
585.2205729425996
 30
0.0
 42
0.0984993638832359
 70
     1
  0
VERTEX
  5
1D8
330
1D5
100
AcDbEntity
  8
AM_VIS
100
AcDbVertex
100
AcDb2dVertex
 10
58.72144800893505
 20
586.5210017348677
 30
0.0
 42
0.0984993638832385
  0
VERTEX
  5
1D9
330
1D5
100
AcDbEntity
  8
AM_VIS
100
AcDbVertex
100
AcDb2dVertex
 10
60.02187680120295
 20
588.4672973944313
 30
0.0
 42
0.0984993638832353
 70
     1
  0
VERTEX
  5
1DA
330
1D5
100
AcDbEntity
  8
AM_VIS
100
AcDbVertex
100
AcDb2dVertex
 10
60.47842884167147
 20
590.7631070713298
 30
0.0
  0
SEQEND
  5
1DB
330
1D5
100
AcDbEntity
  8
AM_VIS
  0
LINE
  5
1DC
330
2
100
AcDbEntity
  8
AM_HID
100
AcDbLine
 10
59.42904853026812
 20
606.1500208959292
 30
0.0
 11
59.42904853026812
 21
683.478020873504
 31
0.0
  0
LINE
  5
1DD
330
2
100
AcDbEntity
  8
AM_HID
100
AcDbLine
 10
59.37842884199096
 20
606.1500208959292
 30
0.0
 11
59.37842884199096
 21
683.478020873504
 31
0.0
  0
LWPOLYLINE
  5
1DE
330
2
100
AcDbEntity
  8
AM_HID
100
AcDbPolyline
 90
       99
 70
     0
 43
0.0
 10
56.26219827895898
 20
681.8134208739865
 10
56.26179140114004
 20
681.0592810170442
 10
56.26139290221829
 20
680.3050824151792
 10
56.26100278283923
 20
679.5508262907676
 10
56.26062104363518
 20
678.7965138662785
 10
56.2602476852253
 20
678.0421463642729
 10
56.25988270821415
 20
677.2877250074002
 10
56.25952611319371
 20
676.5332510183977
 10
56.25917790074175
 20
675.7787256200876
 10
56.25883807142248
 20
675.024150035376
 10
56.25850662578693
 20
674.2695254872496
 10
56.25818356437219
 20
673.5148531987752
 10
56.25786888770199
 20
672.760134393096
 10
56.25756259628611
 20
672.0053702934318
 10
56.25726469062112
 20
671.2505621230747
 10
56.25697517118988
 20
670.4957111053894
 10
56.25669403846154
 20
669.7408184638087
 10
56.2564212928919
 20
668.9858854218339
 10
56.25615693492273
 20
668.2309132030313
 10
56.25590096498297
 20
667.4759030310309
 10
56.25565338348701
 20
666.7208561295242
 10
56.25541419083629
 20
665.9657737222618
 10
56.25518338741847
 20
665.2106570330527
 10
56.2549609736077
 20
664.4555072857605
 10
56.25474694976458
 20
663.7003257043032
 10
56.25454131623564
 20
662.9451135126497
 10
56.25434407335422
 20
662.1898719348194
 10
56.25415522144044
 20
661.4346021948782
 10
56.2539747607999
 20
660.6793055169386
 10
56.25380269172535
 20
659.9239831251561
 10
56.25363901449543
 20
659.1686362437285
 10
56.2534837293756
 20
658.4132660968926
 10
56.25333683661768
 20
657.6578739089236
 10
56.25319833645949
 20
656.9024609041319
 10
56.25306822912557
 20
656.1470283068618
 10
56.25294651482693
 20
655.3915773414895
 10
56.2528331937607
 20
654.6361092324207
 10
56.25272826611035
 20
653.8806252040891
 10
56.25263173204643
 20
653.1251264809543
 10
56.25254359172505
 20
652.3696142874992
 10
56.2524638452893
 20
651.6140898482293
 10
56.25239249286801
 20
650.8585543876693
 10
56.25232953457715
 20
650.1030091303619
 10
56.25227497051878
 20
649.3474553008661
 10
56.25222880078126
 20
648.5918941237541
 10
56.25219102543963
 20
647.8363268236107
 10
56.25216164455469
 20
647.08075462503
 10
56.25214065817431
 20
646.3251787526147
 10
56.25212806633249
 20
645.5696004309727
 10
56.25212386904957
 20
644.8140208847164
 10
56.25212806633249
 20
644.0584413384601
 10
56.25214065817431
 20
643.3028630168182
 10
56.25216164455469
 20
642.5472871444029
 10
56.25219102543963
 20
641.7917149458221
 10
56.25222880078126
 20
641.0361476456787
 10
56.25227497051878
 20
640.2805864685668
 10
56.25232953457715
 20
639.5250326390709
 10
56.25239249286801
 20
638.7694873817636
 10
56.2524638452893
 20
638.0139519212035
 10
56.25254359172505
 20
637.2584274819335
 10
56.25263173204643
 20
636.5029152884787
 10
56.25272826611035
 20
635.7474165653437
 10
56.2528331937607
 20
634.9919325370121
 10
56.25294651482693
 20
634.2364644279435
 10
56.25306822912557
 20
633.4810134625711
 10
56.25319833645949
 20
632.725580865301
 10
56.25333683661768
 20
631.9701678605094
 10
56.2534837293756
 20
631.2147756725401
 10
56.25363901449543
 20
630.4594055257044
 10
56.25380269172535
 20
629.7040586442768
 10
56.2539747607999
 20
628.9487362524943
 10
56.25415522144044
 20
628.1934395745548
 10
56.25434407335422
 20
627.4381698346136
 10
56.25454131623553
 20
626.682928256783
 10
56.25474694976458
 20
625.9277160651298
 10
56.2549609736077
 20
625.1725344836724
 10
56.25518338741847
 20
624.4173847363803
 10
56.25541419083629
 20
623.6622680471711
 10
56.25565338348701
 20
622.9071856399087
 10
56.25590096498297
 20
622.152138738402
 10
56.25615693492273
 20
621.3971285664015
 10
56.2564212928919
 20
620.642156347599
 10
56.25669403846154
 20
619.8872233056241
 10
56.25697517118976
 20
619.1323306640436
 10
56.25726469062112
 20
618.377479646358
 10
56.25756259628611
 20
617.622671476001
 10
56.25786888770199
 20
616.8679073763369
 10
56.25818356437219
 20
616.1131885706578
 10
56.25850662578693
 20
615.3585162821833
 10
56.25883807142248
 20
614.6038917340568
 10
56.25917790074175
 20
613.8493161493451
 10
56.25952611319371
 20
613.0947907510353
 10
56.25988270821415
 20
612.3403167620327
 10
56.2602476852253
 20
611.58589540516
 10
56.26062104363518
 20
610.8315279031543
 10
56.26100278283923
 20
610.0772154786652
 10
56.26139290221818
 20
609.3229593542537
 10
56.26179140114004
 20
608.5687607523887
 10
56.26219827895886
 20
607.8146208954464
  0
LWPOLYLINE
  5
1DF
330
2
100
AcDbEntity
  8
AM_HID
100
AcDbPolyline
 90
       99
 70
     0
 43
0.0
 10
55.76221731757176
 20
607.783450381555
 10
55.76181043975293
 20
608.5382255711484
 10
55.76141194083106
 20
609.2930595551547
 10
55.761021821452
 20
610.0479511101682
 10
55.76064008224818
 20
610.8028990126897
 10
55.76026672383818
 20
611.5579020391285
 10
55.75990174682704
 20
612.3129589658047
 10
55.75954515180649
 20
613.0680685689513
 10
55.75919693935464
 20
613.8232296247156
 10
55.75885711003536
 20
614.5784409091617
 10
55.75852566439983
 20
615.3337011982721
 10
55.75820260298508
 20
616.0890092679502
 10
55.75788792631488
 20
616.8443638940216
 10
55.757581634899
 20
617.5997638522365
 10
55.75728372923413
 20
618.3552079182718
 10
55.75699420980277
 20
619.1106948677331
 10
55.75671307707455
 20
619.8662234761557
 10
55.75644033150479
 20
620.6217925190083
 10
55.75617597353584
 20
621.3774007716937
 10
55.75592000359586
 20
622.1330470095509
 10
55.75567242209991
 20
622.8887300078575
 10
55.75543322944918
 20
623.6444485418319
 10
55.75520242603147
 20
624.4002013866345
 10
55.75498001222081
 20
625.15598731737
 10
55.75476598837747
 20
625.9118051090896
 10
55.75456035484842
 20
626.6676535367934
 10
55.75436311196722
 20
627.4235313754306
 10
55.75417426005333
 20
628.1794373999042
 10
55.7539937994128
 20
628.9353703850704
 10
55.75382173033824
 20
629.6913291057424
 10
55.75365805310844
 20
630.4473123366911
 10
55.75350276798872
 20
631.2033188526479
 10
55.75335587523056
 20
631.9593474283069
 10
55.75321737507238
 20
632.7153968383259
 10
55.75308726773847
 20
633.471465857329
 10
55.75296555343982
 20
634.2275532599091
 10
55.75285223237358
 20
634.9836578206283
 10
55.75274730472336
 20
635.7397783140217
 10
55.75265077065933
 20
636.495913514598
 10
55.75256263033793
 20
637.2520621968428
 10
55.75248288390207
 20
638.0082231352191
 10
55.7524115314809
 20
638.7643951041706
 10
55.75234857319014
 20
639.5205768781226
 10
55.75229400913179
 20
640.2767672314851
 10
55.75224783939439
 20
641.0329649386535
 10
55.75221006405252
 20
641.7891687740118
 10
55.75218068316758
 20
642.5453775119343
 10
55.7521596967872
 20
643.3015899267863
 10
55.75214710494538
 20
644.0578047929284
 10
55.75214290766258
 20
644.8140208847164
 10
55.75214710494538
 20
645.5702369765044
 10
55.7521596967872
 20
646.3264518426464
 10
55.75218068316758
 20
647.0826642574987
 10
55.75221006405252
 20
647.8388729954211
 10
55.75224783939439
 20
648.5950768307795
 10
55.75229400913179
 20
649.351274537948
 10
55.75234857319014
 20
650.1074648913103
 10
55.7524115314809
 20
650.8636466652624
 10
55.75248288390207
 20
651.6198186342138
 10
55.75256263033793
 20
652.3759795725903
 10
55.75265077065933
 20
653.1321282548349
 10
55.75274730472336
 20
653.8882634554113
 10
55.75285223237358
 20
654.6443839488046
 10
55.75296555343982
 20
655.4004885095239
 10
55.75308726773847
 20
656.1565759121037
 10
55.75321737507238
 20
656.9126449311069
 10
55.75335587523056
 20
657.668694341126
 10
55.75350276798872
 20
658.4247229167849
 10
55.75365805310844
 20
659.180729432742
 10
55.75382173033824
 20
659.9367126636907
 10
55.7539937994128
 20
660.6926713843626
 10
55.75417426005333
 20
661.4486043695287
 10
55.75436311196722
 20
662.2045103940023
 10
55.75456035484854
 20
662.9603882326396
 10
55.75476598837747
 20
663.7162366603432
 10
55.75498001222081
 20
664.472054452063
 10
55.75520242603147
 20
665.2278403827986
 10
55.75543322944918
 20
665.983593227601
 10
55.75567242209991
 20
666.7393117615754
 10
55.75592000359586
 20
667.4949947598823
 10
55.75617597353584
 20
668.2506409977394
 10
55.75644033150479
 20
669.0062492504246
 10
55.75671307707455
 20
669.7618182932772
 10
55.75699420980277
 20
670.5173469017
 10
55.75728372923413
 20
671.272833851161
 10
55.757581634899
 20
672.0282779171967
 10
55.75788792631488
 20
672.7836778754115
 10
55.75820260298508
 20
673.5390325014828
 10
55.75852566439983
 20
674.294340571161
 10
55.75885711003536
 20
675.0496008602713
 10
55.75919693935464
 20
675.8048121447174
 10
55.75954515180649
 20
676.5599732004818
 10
55.75990174682704
 20
677.3150828036283
 10
55.76026672383818
 20
678.0701397303047
 10
55.76064008224818
 20
678.8251427567433
 10
55.76102182145212
 20
679.5800906592647
 10
55.76141194083106
 20
680.3349822142782
 10
55.76181043975293
 20
681.0898161982846
 10
55.76221731757176
 20
681.8445913878782
  0
LINE
  5
1E0
330
2
100
AcDbEntity
  8
AM_HID
100
AcDbLine
 10
56.37782884286093
 20
607.8146208954464
 30
0.0
 11
56.37782884286093
 21
681.8134208739865
 31
0.0
  0
LINE
  5
1E1
330
2
100
AcDbEntity
  8
AM_HID
100
AcDbLine
 10
57.27842884260008
 20
606.1500208959292
 30
0.0
 11
57.27842884260008
 21
683.478020873504
 31
0.0
  0
LINE
  5
1E2
330
2
100
AcDbEntity
  8
AM_HID
100
AcDbLine
 10
57.22780915432292
 20
683.478020873504
 30
0.0
 11
57.22780915432281
 21
606.1500208959292
 31
0.0
  0
LINE
  5
1E3
330
2
100
AcDbEntity
  8
AM_HID
100
AcDbLine
 10
59.42904853026789
 20
606.1500208959292
 30
0.0
 11
59.37842884199074
 21
606.1500208959292
 31
0.0
  0
ARC
  5
1E4
330
2
100
AcDbEntity
  8
AM_HID
100
AcDbCircle
 10
59.22842884203413
 20
603.0030234616161
 30
0.0
 40
0.0865507186951145
100
AcDbArc
 50
0.0000000000046818
 51
130.4506060196858
  0
LINE
  5
1E5
330
2
100
AcDbEntity
  8
AM_HID
100
AcDbLine
 10
59.09867038796483
 20
603.1552165743853
 30
0.0
 11
59.1722754047355
 21
603.0688855780881
 31
0.0
  0
ARC
  5
1E6
330
2
100
AcDbEntity
  8
AM_HID
100
AcDbCircle
 10
59.22842884203413
 20
603.0030234616161
 30
0.0
 40
0.1999999999420787
100
AcDbArc
 50
0.0000000000020101
 51
130.450606019686
  0
LINE
  5
1E7
330
2
100
AcDbEntity
  8
AM_HID
100
AcDbLine
 10
59.42842884197614
 20
603.0030234616161
 30
0.0
 11
59.31497956072928
 21
603.0030234616161
 31
0.0
  0
ELLIPSE
  5
1E8
330
2
100
AcDbEntity
  8
AM_HID
100
AcDbEllipse
 10
55.76221731757176
 20
607.8146208954464
 30
0.0
 11
0.4999999255709193
 21
0.0002725510505763
 31
0.0
210
0.0
220
0.0
230
1.0
 40
0.0623410185752854
 41
-1.570830309020124
 42
-0.0087436539120518
  0
LWPOLYLINE
  5
1E9
330
2
100
AcDbEntity
  8
AM_HID
100
AcDbPolyline
 90
        6
 70
     0
 43
0.0
 10
56.26219827895886
 20
607.8146208954465
 10
56.24106569702417
 20
607.5731725299649
 10
55.92492814878585
 20
606.9085621528919
 10
55.50745513172762
 20
606.5812305359699
 10
55.14859946574768
 20
606.4565018434521
 10
54.8778288432959
 20
606.4297633206499
  0
LINE
  5
1EA
330
2
100
AcDbEntity
  8
AM_HID
100
AcDbLine
 10
54.8778288432959
 20
606.42976332065
 30
0.0
 11
54.8778288432959
 21
606.8978282950088
 31
0.0
  0
LWPOLYLINE
  5
1EB
330
2
100
AcDbEntity
  8
AM_HID
100
AcDbPolyline
 90
        6
 70
     0
 43
0.0
 10
54.8778288432959
 20
606.8978282950089
 10
55.05084133461844
 20
606.914931069135
 10
55.28012964352786
 20
606.9947095661393
 10
55.54684303768659
 20
607.2040623261216
 10
55.74874697565963
 20
607.6290686151587
 10
55.76221731757176
 20
607.783450381555
  0
LINE
  5
1EC
330
2
100
AcDbEntity
  8
AM_HID
100
AcDbLine
 10
54.8778288432959
 20
606.42976332065
 30
0.0
 11
54.47842884341184
 21
606.42976332065
 31
0.0
  0
LINE
  5
1ED
330
2
100
AcDbEntity
  8
AM_HID
100
AcDbLine
 10
54.47842884341184
 20
606.42976332065
 30
0.0
 11
54.47842884341184
 21
606.8978282950089
 31
0.0
  0
LINE
  5
1EE
330
2
100
AcDbEntity
  8
AM_HID
100
AcDbLine
 10
54.47842884341184
 20
606.8978282950088
 30
0.0
 11
54.8778288432959
 21
606.8978282950088
 31
0.0
  0
LINE
  5
1EF
330
2
100
AcDbEntity
  8
AM_HID
100
AcDbLine
 10
54.47842884341184
 20
606.3146208958813
 30
0.0
 11
54.47842884341184
 21
606.42976332065
 31
0.0
  0
LINE
  5
1F0
330
2
100
AcDbEntity
  8
AM_HID
100
AcDbLine
 10
54.8778288432959
 20
606.3146208958813
 30
0.0
 11
54.8778288432959
 21
606.42976332065
 31
0.0
  0
LINE
  5
1F1
330
2
100
AcDbEntity
  8
AM_HID
100
AcDbLine
 10
54.47842884341184
 20
606.3146208958813
 30
0.0
 11
54.8778288432959
 21
606.3146208958813
 31
0.0
  0
LINE
  5
1F2
330
2
100
AcDbEntity
  8
AM_HID
100
AcDbLine
 10
56.37782884286093
 20
607.8146208954464
 30
0.0
 11
56.26219827895898
 21
607.8146208954464
 31
0.0
  0
ARC
  5
1F3
330
2
100
AcDbEntity
  8
AM_HID
100
AcDbCircle
 10
54.87782884329584
 20
607.8146208954464
 30
0.0
 40
1.499999999564999
100
AcDbArc
 50
270.0
 51
0.0000000000002036
  0
LINE
  5
1F4
330
2
100
AcDbEntity
  8
AM_HID
100
AcDbLine
 10
57.27842884259985
 20
606.1500208959292
 30
0.0
 11
57.2278091543227
 21
606.1500208959292
 31
0.0
  0
LINE
  5
1F5
330
2
100
AcDbEntity
  8
AM_HID
100
AcDbLine
 10
56.54242884281325
 20
605.4140208961426
 30
0.0
 11
56.54242884281325
 21
605.4646405844196
 31
0.0
  0
LINE
  5
1F6
330
2
100
AcDbEntity
  8
AM_HID
100
AcDbLine
 10
56.54242884281325
 20
603.2634012084742
 30
0.0
 11
56.54242884281325
 21
603.3140208967514
 31
0.0
  0
LINE
  5
1F7
330
2
100
AcDbEntity
  8
AM_HID
100
AcDbLine
 10
54.47842884341184
 20
605.4140208961423
 30
0.0
 11
56.54242884281325
 21
605.4140208961423
 31
0.0
  0
LINE
  5
1F8
330
2
100
AcDbEntity
  8
AM_HID
100
AcDbLine
 10
54.47842884341184
 20
605.4140208961426
 30
0.0
 11
54.47842884341184
 21
605.4646405844196
 31
0.0
  0
LINE
  5
1F9
330
2
100
AcDbEntity
  8
AM_HID
100
AcDbLine
 10
56.54242884281325
 20
605.4646405844193
 30
0.0
 11
54.47842884341184
 21
605.4646405844193
 31
0.0
  0
LINE
  5
1FA
330
2
100
AcDbEntity
  8
AM_HID
100
AcDbLine
 10
54.47842884341184
 20
603.2634012084741
 30
0.0
 11
56.54242884281325
 21
603.2634012084741
 31
0.0
  0
LINE
  5
1FB
330
2
100
AcDbEntity
  8
AM_HID
100
AcDbLine
 10
54.47842884341184
 20
603.2634012084742
 30
0.0
 11
54.47842884341184
 21
603.3140208967514
 31
0.0
  0
LINE
  5
1FC
330
2
100
AcDbEntity
  8
AM_HID
100
AcDbLine
 10
54.47842884341184
 20
603.3140208967513
 30
0.0
 11
56.54242884281325
 21
603.3140208967513
 31
0.0
  0
ARC
  5
1FD
330
2
100
AcDbEntity
  8
AM_HID
100
AcDbCircle
 10
56.5424288428132
 20
606.1500208959292
 30
0.0
 40
0.7359999997868272
100
AcDbArc
 50
270.0
 51
0.0000000000005216
  0
ARC
  5
1FE
330
2
100
AcDbEntity
  8
AM_HID
100
AcDbCircle
 10
56.5424288428132
 20
606.1500208959292
 30
0.0
 40
0.685380311509668
100
AcDbArc
 50
270.0
 51
0.0000000000005852
  0
ARC
  5
1FF
330
2
100
AcDbEntity
  8
AM_HID
100
AcDbCircle
 10
56.5424288428132
 20
606.1500208959292
 30
0.0
 40
2.886619687454983
100
AcDbArc
 50
270.0000000000002
 51
0.0000000000003817
  0
ARC
  5
200
330
2
100
AcDbEntity
  8
AM_HID
100
AcDbCircle
 10
56.5424288428132
 20
606.1500208959292
 30
0.0
 40
2.835999999177821
100
AcDbArc
 50
270.0000000000002
 51
0.0000000000004071
  0
LWPOLYLINE
  5
201
330
2
100
AcDbEntity
  8
AM_HID
100
AcDbPolyline
 90
        6
 70
     0
 43
0.0
 10
46.8677042157559
 20
690.8140208713795
 10
47.01958725473263
 20
689.2957238291132
 10
48.72633704494899
 20
685.8252041768428
 10
51.01933512656501
 20
684.0297315076652
 10
52.99091690940895
 20
683.345051170381
 10
54.47842884341184
 20
683.1982784487828
  0
LWPOLYLINE
  5
202
330
2
100
AcDbEntity
  8
AM_HID
100
AcDbPolyline
 90
        6
 70
     0
 43
0.0
 10
54.47842884341184
 20
682.7302134744241
 10
52.89325916981784
 20
682.8867480995698
 10
50.7922273090802
 20
683.6169694045233
 10
48.34862620303352
 20
685.5318880582934
 10
46.52965355235164
 20
689.2333845872464
 10
46.36772325436879
 20
690.8527740305932
  0
ARC
  5
203
330
2
100
AcDbEntity
  8
AM_HID
100
AcDbCircle
 10
54.47842884341179
 20
690.8140208713764
 30
0.0
 40
7.500599997824816
100
AcDbArc
 50
180.0
 51
270.0000000000002
  0
ARC
  5
204
330
2
100
AcDbEntity
  8
AM_HID
100
AcDbCircle
 10
54.47842884341179
 20
690.8140208713765
 30
0.0
 40
6.599999998085766
100
AcDbArc
 50
180.0
 51
270.0000000000002
  0
ARC
  5
205
330
2
100
AcDbEntity
  8
AM_HID
100
AcDbCircle
 10
54.47842884341179
 20
690.8140208713765
 30
0.0
 40
6.650619686362924
100
AcDbArc
 50
180.0
 51
270.0000000000002
  0
ARC
  5
206
330
2
100
AcDbEntity
  8
AM_HID
100
AcDbCircle
 10
54.47842884341179
 20
690.8140208713765
 30
0.0
 40
4.449380310417609
100
AcDbArc
 50
180.0
 51
270.0000000000002
  0
ARC
  5
207
330
2
100
AcDbEntity
  8
AM_HID
100
AcDbCircle
 10
54.47842884341179
 20
690.8140208713765
 30
0.0
 40
4.499999998694772
100
AcDbArc
 50
180.0
 51
270.0000000000002
  0
ARC
  5
208
330
2
100
AcDbEntity
  8
AM_HID
100
AcDbCircle
 10
54.47902884341619
 20
690.8146208713765
 30
0.0
 40
3.286550717767154
100
AcDbArc
 50
180.0
 51
270.0000000000002
  0
ARC
  5
209
330
2
100
AcDbEntity
  8
AM_HID
100
AcDbCircle
 10
54.47902884341619
 20
690.8146208713765
 30
0.0
 40
3.399999999014119
100
AcDbArc
 50
180.0
 51
270.0000000000002
  0
ELLIPSE
  5
20A
330
2
100
AcDbEntity
  8
AM_HID
100
AcDbEllipse
 10
46.36772325436879
 20
690.8140208713797
 30
0.0
 11
0.4999998847888329
 21
-0.0003392140238098
 31
0.0
210
0.0
220
0.0
230
1.0
 40
0.0775063007202322
 41
0.008752977090342
 42
1.570848909255187
  0
LINE
  5
20B
330
2
100
AcDbEntity
  8
AM_HID
100
AcDbLine
 10
46.97782884558705
 20
690.8140208713764
 30
0.0
 11
46.86770421575602
 21
690.8140208713764
 31
0.0
  0
LINE
  5
20C
330
2
100
AcDbEntity
  8
AM_HID
100
AcDbLine
 10
50.02904853299412
 20
690.8140208713766
 30
0.0
 11
49.97842884471686
 21
690.8140208713766
 31
0.0
  0
LINE
  5
20D
330
2
100
AcDbEntity
  8
AM_HID
100
AcDbLine
 10
47.87842884532596
 20
690.8140208713766
 30
0.0
 11
47.82780915704882
 21
690.8140208713766
 31
0.0
  0
LINE
  5
20E
330
2
100
AcDbEntity
  8
AM_HID
100
AcDbLine
 10
51.07902884440216
 20
690.8146208713765
 30
0.0
 11
51.19247812564902
 21
690.8146208713765
 31
0.0
  0
LINE
  5
20F
330
2
100
AcDbEntity
  8
AM_HID
100
AcDbLine
 10
59.42904853026789
 20
683.478020873504
 30
0.0
 11
59.37842884199074
 21
683.478020873504
 31
0.0
  0
ARC
  5
210
330
2
100
AcDbEntity
  8
AM_HID
100
AcDbCircle
 10
59.22842884203413
 20
686.6250183078173
 30
0.0
 40
0.0865507186951145
100
AcDbArc
 50
229.5493939806641
 51
0.0
  0
LINE
  5
211
330
2
100
AcDbEntity
  8
AM_HID
100
AcDbLine
 10
59.42842884197614
 20
686.6250183078173
 30
0.0
 11
59.31497956072928
 21
686.6250183078173
 31
0.0
  0
ARC
  5
212
330
2
100
AcDbEntity
  8
AM_HID
100
AcDbCircle
 10
59.22842884203413
 20
686.6250183078173
 30
0.0
 40
0.1999999999420787
100
AcDbArc
 50
229.549393980314
 51
359.999999999998
  0
LINE
  5
213
330
2
100
AcDbEntity
  8
AM_HID
100
AcDbLine
 10
59.09867038796483
 20
686.472825195048
 30
0.0
 11
59.17227540473596
 21
686.5591561913447
 31
0.0
  0
LINE
  5
214
330
2
100
AcDbEntity
  8
AM_HID
100
AcDbLine
 10
54.47842884341184
 20
683.1982784487829
 30
0.0
 11
54.47842884341184
 21
682.7302134744241
 31
0.0
  0
LINE
  5
215
330
2
100
AcDbEntity
  8
AM_HID
100
AcDbLine
 10
54.47842884341184
 20
683.1982784487829
 30
0.0
 11
54.87782884329567
 21
683.1982784487829
 31
0.0
  0
LINE
  5
216
330
2
100
AcDbEntity
  8
AM_HID
100
AcDbLine
 10
54.87782884329567
 20
683.1982784487829
 30
0.0
 11
54.87782884329579
 21
682.7302134744241
 31
0.0
  0
LINE
  5
217
330
2
100
AcDbEntity
  8
AM_HID
100
AcDbLine
 10
54.87782884329579
 20
682.7302134744243
 30
0.0
 11
54.47842884341184
 21
682.7302134744243
 31
0.0
  0
LWPOLYLINE
  5
218
330
2
100
AcDbEntity
  8
AM_HID
100
AcDbPolyline
 90
        6
 70
     0
 43
0.0
 10
54.87782884329567
 20
683.1982784487828
 10
55.11965947060867
 20
683.1769924424125
 10
55.78510399548861
 20
682.8595320487997
 10
56.11158483616907
 20
682.4418587830207
 10
56.23567736278665
 20
682.083582383905
 10
56.26219827895886
 20
681.8134208739865
  0
ELLIPSE
  5
219
330
2
100
AcDbEntity
  8
AM_HID
100
AcDbEllipse
 10
55.76221731757186
 20
681.8134208739865
 30
0.0
 11
0.4999999255709193
 21
-0.0002725510505861
 31
0.0
210
0.0
220
0.0
230
1.0
 40
0.0623410185752972
 41
0.0087436539119755
 42
1.57083030902023
  0
LWPOLYLINE
  5
21A
330
2
100
AcDbEntity
  8
AM_HID
100
AcDbPolyline
 90
        6
 70
     0
 43
0.0
 10
55.76221731757176
 20
681.844591387878
 10
55.74530813945819
 20
682.0173330093634
 10
55.66607047111983
 20
682.2464360354582
 10
55.4575181251663
 20
682.513550874231
 10
55.03234986231245
 20
682.7165982850666
 10
54.87782884329579
 20
682.7302134744241
  0
LINE
  5
21B
330
2
100
AcDbEntity
  8
AM_HID
100
AcDbLine
 10
56.37782884286093
 20
681.8134208739865
 30
0.0
 11
56.26219827895909
 21
681.8134208739865
 31
0.0
  0
LINE
  5
21C
330
2
100
AcDbEntity
  8
AM_HID
100
AcDbLine
 10
54.87782884329567
 20
683.3134208735516
 30
0.0
 11
54.87782884329567
 21
683.1982784487829
 31
0.0
  0
ARC
  5
21D
330
2
100
AcDbEntity
  8
AM_HID
100
AcDbCircle
 10
54.87782884329584
 20
681.8134208739865
 30
0.0
 40
1.499999999564999
100
AcDbArc
 50
0.0000000000010432
 51
90.0000000000076
  0
LINE
  5
21E
330
2
100
AcDbEntity
  8
AM_HID
100
AcDbLine
 10
54.47842884341184
 20
683.3134208735515
 30
0.0
 11
54.47842884341184
 21
683.1982784487829
 31
0.0
  0
LINE
  5
21F
330
2
100
AcDbEntity
  8
AM_HID
100
AcDbLine
 10
54.87782884329567
 20
683.3134208735516
 30
0.0
 11
54.47842884341184
 21
683.3134208735516
 31
0.0
  0
LINE
  5
220
330
2
100
AcDbEntity
  8
AM_HID
100
AcDbLine
 10
54.47842884341184
 20
684.2140208732906
 30
0.0
 11
54.47842884341184
 21
684.1634011850134
 31
0.0
  0
LINE
  5
221
330
2
100
AcDbEntity
  8
AM_HID
100
AcDbLine
 10
54.47842884341184
 20
686.3646405609588
 30
0.0
 11
54.47842884341184
 21
686.3140208726815
 31
0.0
  0
LINE
  5
222
330
2
100
AcDbEntity
  8
AM_HID
100
AcDbLine
 10
56.54242884281325
 20
684.2140208732907
 30
0.0
 11
54.47842884341184
 21
684.2140208732907
 31
0.0
  0
LINE
  5
223
330
2
100
AcDbEntity
  8
AM_HID
100
AcDbLine
 10
56.54242884281325
 20
684.2140208732906
 30
0.0
 11
56.54242884281325
 21
684.1634011850134
 31
0.0
  0
LINE
  5
224
330
2
100
AcDbEntity
  8
AM_HID
100
AcDbLine
 10
54.47842884341184
 20
684.1634011850136
 30
0.0
 11
56.54242884281325
 21
684.1634011850136
 31
0.0
  0
LINE
  5
225
330
2
100
AcDbEntity
  8
AM_HID
100
AcDbLine
 10
56.54242884281325
 20
686.364640560959
 30
0.0
 11
54.47842884341184
 21
686.364640560959
 31
0.0
  0
LINE
  5
226
330
2
100
AcDbEntity
  8
AM_HID
100
AcDbLine
 10
56.54242884281325
 20
686.3646405609588
 30
0.0
 11
56.54242884281325
 21
686.3140208726815
 31
0.0
  0
LINE
  5
227
330
2
100
AcDbEntity
  8
AM_HID
100
AcDbLine
 10
56.54242884281325
 20
686.3140208726818
 30
0.0
 11
54.47842884341184
 21
686.3140208726818
 31
0.0
  0
LINE
  5
228
330
2
100
AcDbEntity
  8
AM_HID
100
AcDbLine
 10
57.27842884259985
 20
683.478020873504
 30
0.0
 11
57.2278091543227
 21
683.478020873504
 31
0.0
  0
LINE
  5
229
330
2
100
AcDbEntity
  8
AM_HID
100
AcDbLine
 10
56.54242884279267
 20
687.4146208723625
 30
0.0
 11
56.54242884279267
 21
687.5280701536094
 31
0.0
  0
LINE
  5
22A
330
2
100
AcDbEntity
  8
AM_HID
100
AcDbLine
 10
56.54242884279267
 20
687.5280701536094
 30
0.0
 11
54.47902884341624
 21
687.5280701536094
 31
0.0
  0
LINE
  5
22B
330
2
100
AcDbEntity
  8
AM_HID
100
AcDbLine
 10
54.47902884341624
 20
687.4146208723625
 30
0.0
 11
56.54242884279267
 21
687.4146208723625
 31
0.0
  0
LINE
  5
22C
330
2
100
AcDbEntity
  8
AM_HID
100
AcDbLine
 10
54.47902884341624
 20
687.4146208723625
 30
0.0
 11
54.47902884341624
 21
687.5280701536094
 31
0.0
  0
ARC
  5
22D
330
2
100
AcDbEntity
  8
AM_HID
100
AcDbCircle
 10
56.5424288428132
 20
683.478020873504
 30
0.0
 40
2.886619687454991
100
AcDbArc
 50
359.9999999999996
 51
89.99999999999969
  0
ARC
  5
22E
330
2
100
AcDbEntity
  8
AM_HID
100
AcDbCircle
 10
56.5424288428132
 20
683.478020873504
 30
0.0
 40
2.835999999177828
100
AcDbArc
 50
359.9999999999996
 51
89.99999999999969
  0
ARC
  5
22F
330
2
100
AcDbEntity
  8
AM_HID
100
AcDbCircle
 10
56.5424288428132
 20
683.478020873504
 30
0.0
 40
0.7359999997868342
100
AcDbArc
 50
359.9999999999994
 51
89.99999999999998
  0
ARC
  5
230
330
2
100
AcDbEntity
  8
AM_HID
100
AcDbCircle
 10
56.5424288428132
 20
683.478020873504
 30
0.0
 40
0.6853803115096751
100
AcDbArc
 50
359.9999999999994
 51
89.99999999999998
  0
ARC
  5
231
330
2
100
AcDbEntity
  8
AM_HID
100
AcDbCircle
 10
56.54242884279262
 20
683.474620873512
 30
0.0
 40
4.053449280097257
100
AcDbArc
 50
49.54939398004267
 51
89.99999999999978
  0
ARC
  5
232
330
2
100
AcDbEntity
  8
AM_HID
100
AcDbCircle
 10
56.54242884279262
 20
683.474620873512
 30
0.0
 40
3.939999998850291
100
AcDbArc
 50
49.5493939800426
 51
89.99999999999978
  0
LINE
  5
233
330
2
100
AcDbEntity
  8
AM_HID
100
AcDbLine
 10
39.09242884787372
 20
720.5267758524524
 30
0.0
 11
-87.64566319877856
 21
720.5267758524527
 31
0.0
  0
LINE
  5
234
330
2
100
AcDbEntity
  8
AM_VIS
100
AcDbLine
 10
37.42782884835631
 20
717.6267758532934
 30
0.0
 11
-86.17097111579937
 21
717.6267758532937
 31
0.0
  0
LINE
  5
235
330
2
100
AcDbEntity
  8
AM_VIS
100
AcDbLine
 10
-90.89601783093476
 20
730.6267758495234
 30
0.0
 11
42.15287556349168
 21
730.6267758495234
 31
0.0
  0
LINE
  5
236
330
2
100
AcDbEntity
  8
AM_VIS
100
AcDbLine
 10
58.74255697307503
 20
732.6267758532936
 30
0.0
 11
-107.4856992405181
 21
732.6267758532934
 31
0.0
  0
LINE
  5
237
330
2
100
AcDbEntity
  8
1
100
AcDbLine
 10
48.92962168796316
 20
731.7267758532935
 30
0.0
 11
-98.07037826940678
 21
731.7267758532937
 31
0.0
  0
LINE
  5
238
330
2
100
AcDbEntity
  8
AM_VIS
100
AcDbLine
 10
54.24491107917379
 20
704.629589274003
 30
0.0
 11
-102.9880533466173
 21
704.6295892740028
 31
0.0
  0
LINE
  5
239
330
2
100
AcDbEntity
  8
AM_VIS
100
AcDbLine
 10
-103.2224849399165
 20
704.864020867302
 30
0.0
 11
54.47934267247308
 21
704.8640208673023
 31
0.0
  0
LINE
  5
23A
330
2
100
AcDbEntity
  8
AM_HID
100
AcDbLine
 10
-94.22157111346569
 20
700.5602041823756
 30
0.0
 11
45.47842884602187
 21
700.5602041823758
 31
0.0
  0
LINE
  5
23B
330
2
100
AcDbEntity
  8
AM_HID
100
AcDbLine
 10
45.47842884602187
 20
700.1067659356781
 30
0.0
 11
-94.22157111346569
 21
700.1067659356781
 31
0.0
  0
LINE
  5
23C
330
2
100
AcDbEntity
  8
AM_HID
100
AcDbLine
 10
45.47842884602187
 20
700.6634208685203
 30
0.0
 11
-94.22157111346569
 21
700.6634208685201
 31
0.0
  0
LINE
  5
23D
330
2
100
AcDbEntity
  8
AM_VIS
100
AcDbLine
 10
-96.07037826998681
 20
701.7442120068506
 30
0.0
 11
46.92962168854319
 21
701.7442120068506
 31
0.0
  0
LINE
  5
23E
330
2
100
AcDbEntity
  8
AM_VIS
100
AcDbLine
 10
-96.07037826998681
 20
701.7756797276874
 30
0.0
 11
46.92962168854319
 21
701.7756797276872
 31
0.0
  0
LINE
  5
23F
330
2
100
AcDbEntity
  8
AM_VIS
100
AcDbLine
 10
-101.8732261146488
 20
703.1410459230567
 30
0.0
 11
53.13008384720536
 21
703.1410459230567
 31
0.0
  0
LINE
  5
240
330
2
100
AcDbEntity
  8
AM_HID
100
AcDbLine
 10
45.47842884602175
 20
701.5640208682591
 30
0.0
 11
-94.22157111346548
 21
701.5640208682591
 31
0.0
  0
LINE
  5
241
330
2
100
AcDbEntity
  8
AM_HID
100
AcDbLine
 10
45.47842884602175
 20
703.6640208676502
 30
0.0
 11
-94.22157111346548
 21
703.6640208676503
 31
0.0
  0
LINE
  5
242
330
2
100
AcDbEntity
  8
AM_HID
100
AcDbLine
 10
-94.22157111346548
 20
701.5134011799821
 30
0.0
 11
45.47842884602175
 21
701.5134011799821
 31
0.0
  0
LINE
  5
243
330
2
100
AcDbEntity
  8
AM_HID
100
AcDbLine
 10
45.47842884602175
 20
703.7146405559274
 30
0.0
 11
-94.22157111346548
 21
703.7146405559274
 31
0.0
  0
LINE
  5
244
330
2
100
AcDbEntity
  8
1
100
AcDbLine
 10
-140.7835564455115
 20
701.7756797276875
 30
0.0
 11
-141.6835564455116
 21
701.7756797276874
 31
0.0
  0
LINE
  5
245
330
2
100
AcDbEntity
  8
1
100
AcDbLine
 10
-139.6335564417562
 20
697.0640208695649
 30
0.0
 11
-141.6335564411767
 21
695.0640208701448
 31
0.0
  0
LINE
  5
246
330
2
100
AcDbEntity
  8
1
100
AcDbLine
 10
-135.1835564430466
 20
697.6640208693902
 30
0.0
 11
-135.6835564429016
 21
697.6640208693902
 31
0.0
  0
LINE
  5
247
330
2
100
AcDbEntity
  8
1
100
AcDbLine
 10
-135.6835564429016
 20
697.1329683760111
 30
0.0
 11
-139.6335564417561
 21
697.0640208695649
 31
0.0
  0
LINE
  5
248
330
2
100
AcDbEntity
  8
1
100
AcDbLine
 10
-135.6835564429016
 20
700.9640208684333
 30
0.0
 11
-135.1835564430466
 21
700.9640208684333
 31
0.0
  0
LINE
  5
249
330
2
100
AcDbEntity
  8
1
100
AcDbLine
 10
-139.6335564417562
 20
701.5640208682587
 30
0.0
 11
-135.6835564429016
 21
701.4950733618126
 31
0.0
  0
LINE
  5
24A
330
2
100
AcDbEntity
  8
1
100
AcDbLine
 10
-141.6179846813817
 20
703.5484491078837
 30
0.0
 11
-139.6335564417562
 21
701.5640208682587
 31
0.0
  0
LINE
  5
24B
330
2
100
AcDbEntity
  8
1
100
AcDbLine
 10
-129.5835564446706
 20
701.5640208682594
 30
0.0
 11
-129.5835564446706
 21
703.6640208676506
 31
0.0
  0
LINE
  5
24C
330
2
100
AcDbEntity
  8
1
100
AcDbLine
 10
-129.5835564446706
 20
699.1640208689553
 30
0.0
 11
-129.5835564446706
 21
701.5640208682598
 31
0.0
  0
ARC
  5
24D
330
2
100
AcDbEntity
  8
1
100
AcDbCircle
 10
-139.1835564417413
 20
700.0543159819758
 30
0.0
 40
0.5
100
AcDbArc
 50
90.50000000000027
 51
180.0
  0
LINE
  5
24E
330
2
100
AcDbEntity
  8
1
100
AcDbLine
 10
-139.6335564417562
 20
701.5640208682587
 30
0.0
 11
-139.6335564417562
 21
697.0640208695649
 31
0.0
  0
LINE
  5
24F
330
2
100
AcDbEntity
  8
1
100
AcDbLine
 10
-135.1835564430466
 20
701.4156528164119
 30
0.0
 11
-135.1835564430466
 21
697.2123889214117
 31
0.0
  0
LINE
  5
250
330
2
100
AcDbEntity
  8
1
100
AcDbLine
 10
-135.6835564429016
 20
701.4950733618126
 30
0.0
 11
-135.6835564429016
 21
697.1329683760111
 31
0.0
  0
LINE
  5
251
330
2
100
AcDbEntity
  8
1
100
AcDbLine
 10
-139.4138265625695
 20
695.5380917713086
 30
0.0
 11
-126.6835564455116
 21
695.6491871555608
 31
0.0
  0
LINE
  5
252
330
2
100
AcDbEntity
  8
1
100
AcDbLine
 10
-126.6835564455116
 20
694.1640208704009
 30
0.0
 11
-139.5393302367999
 21
694.0518302321764
 31
0.0
  0
LINE
  5
253
330
2
100
AcDbEntity
  8
1
100
AcDbLine
 10
-139.3607356283137
 20
696.1537734412461
 30
0.0
 11
-126.6835564455116
 21
696.2644055079342
 31
0.0
  0
LINE
  5
254
330
2
100
AcDbEntity
  8
1
100
AcDbLine
 10
-126.6835564455116
 20
697.0640208695642
 30
0.0
 11
-135.1835564430466
 21
697.2123889214117
 31
0.0
  0
LINE
  5
255
330
2
100
AcDbEntity
  8
1
100
AcDbLine
 10
-135.1835564430466
 20
701.4156528164119
 30
0.0
 11
-126.6835564455116
 21
701.5640208682594
 31
0.0
  0
LINE
  5
256
330
2
100
AcDbEntity
  8
1
100
AcDbLine
 10
-140.5256533425064
 20
698.623319998024
 30
0.0
 11
-126.6835564455116
 21
698.864934698104
 31
0.0
  0
LINE
  5
257
330
2
100
AcDbEntity
  8
1
100
AcDbLine
 10
-126.6835564455116
 20
696.1858864560639
 30
0.0
 11
-139.3637798229047
 21
696.1186718778158
 31
0.0
  0
LINE
  5
258
330
2
100
AcDbEntity
  8
1
100
AcDbLine
 10
-126.6835564455116
 20
696.0644055079913
 30
0.0
 11
-139.3684819632954
 21
696.0644055079913
 31
0.0
  0
LINE
  5
259
330
2
100
AcDbEntity
  8
1
100
AcDbLine
 10
-126.6835564455116
 20
695.5936669206017
 30
0.0
 11
-139.4159424409442
 21
695.5133984064534
 31
0.0
  0
LINE
  5
25A
330
2
100
AcDbEntity
  8
1
100
AcDbLine
 10
-126.6835564455116
 20
695.4491871556188
 30
0.0
 11
-139.4214395949923
 21
695.4491871556188
 31
0.0
  0
LINE
  5
25B
330
2
100
AcDbEntity
  8
1
100
AcDbLine
 10
-126.6835564455116
 20
701.5134011799822
 30
0.0
 11
-129.5835564446706
 21
701.5640208682594
 31
0.0
  0
LINE
  5
25C
330
2
100
AcDbEntity
  8
1
100
AcDbLine
 10
-129.5835564446706
 20
703.6640208676506
 30
0.0
 11
-126.6835564455116
 21
703.7146405559276
 31
0.0
  0
LINE
  5
25D
330
2
100
AcDbEntity
  8
1
100
AcDbLine
 10
-139.1879197094906
 20
700.5542969435079
 30
0.0
 11
-126.6835564455116
 21
700.6634208685205
 31
0.0
  0
ARC
  5
25E
330
2
100
AcDbEntity
  8
AM_VIS
100
AcDbCircle
 10
-140.1835564455115
 20
703.1281489987056
 30
0.0
 40
1.5
100
AcDbArc
 50
91.0000000000007
 51
180.0
  0
LINE
  5
25F
330
2
100
AcDbEntity
  8
AM_VIS
100
AcDbLine
 10
-126.6835564455116
 20
703.7146405559276
 30
0.0
 11
-126.6835564455116
 21
704.8640208673025
 31
0.0
  0
LINE
  5
260
330
2
100
AcDbEntity
  8
AM_VIS
100
AcDbLine
 10
-126.6835564455116
 20
699.1640208689553
 30
0.0
 11
-126.6835564455116
 21
700.6634208685205
 31
0.0
  0
LINE
  5
261
330
2
100
AcDbEntity
  8
AM_VIS
100
AcDbLine
 10
-126.6835564455116
 20
701.5134011799824
 30
0.0
 11
-126.6835564455116
 21
703.7146405559278
 31
0.0
  0
LINE
  5
262
330
2
100
AcDbEntity
  8
AM_VIS
100
AcDbLine
 10
-126.6835564455116
 20
700.6634208685205
 30
0.0
 11
-126.6835564455116
 21
701.5134011799822
 31
0.0
  0
LINE
  5
263
330
2
100
AcDbEntity
  8
AM_VIS
100
AcDbLine
 10
-126.6835564455116
 20
704.8640208673025
 30
0.0
 11
-140.2097350551676
 21
704.6279205414402
 31
0.0
  0
LINE
  5
264
330
2
100
AcDbEntity
  8
AM_VIS
100
AcDbLine
 10
-95.17157111318914
 20
717.6267758532937
 30
0.0
 11
-87.67097111536442
 21
717.6267758532937
 31
0.0
  0
LINE
  5
265
330
2
100
AcDbEntity
  8
AM_HID
100
AcDbLine
 10
-95.17157111318937
 20
720.5267758524527
 30
0.0
 11
-88.57157111510355
 21
720.5267758524527
 31
0.0
  0
ELLIPSE
  5
266
330
2
100
AcDbEntity
  8
AM_VIS
100
AcDbEllipse
 10
-107.3302077125059
 20
698.6233199980724
 30
0.0
 11
1.64999792924497
 21
0.0026137919311978
 31
0.0
210
0.0
220
0.0
230
1.0
 40
0.0903825181242662
 41
1.946235767637125
 42
3.124067626013102
  0
POLYLINE
  5
267
330
2
100
AcDbEntity
  8
AM_VIS
100
AcDb2dPolyline
 66
     1
 10
0.0
 20
0.0
 30
0.0
 70
     2
  0
VERTEX
  5
268
330
267
100
AcDbEntity
  8
AM_VIS
100
AcDbVertex
100
AcDb2dVertex
 10
-102.9880533466174
 20
704.6295892740028
 30
0.0
 42
0.0246538786466397
  0
VERTEX
  5
269
330
267
100
AcDbEntity
  8
AM_VIS
100
AcDbVertex
100
AcDb2dVertex
 10
-103.722897742087
 20
704.5933016830214
 30
0.0
 42
0.0407397758654808
 70
     1
  0
VERTEX
  5
26A
330
267
100
AcDbEntity
  8
AM_VIS
100
AcDbVertex
100
AcDb2dVertex
 10
-104.1613956181662
 20
704.5134751176625
 30
0.0
 42
0.0183972885406935
  0
VERTEX
  5
26B
330
267
100
AcDbEntity
  8
AM_VIS
100
AcDbVertex
100
AcDb2dVertex
 10
-105.0301169878333
 20
704.2463668449752
 30
0.0
 42
0.0226445339023736
 70
     1
  0
VERTEX
  5
26C
330
267
100
AcDbEntity
  8
AM_VIS
100
AcDbVertex
100
AcDb2dVertex
 10
-105.7158530616728
 20
703.9721807028845
 30
0.0
 42
0.0601216813516247
  0
VERTEX
  5
26D
330
267
100
AcDbEntity
  8
AM_VIS
100
AcDbVertex
100
AcDb2dVertex
 10
-106.5737622709636
 20
703.4511953397395
 30
0.0
 42
0.0461685757141104
 70
     1
  0
VERTEX
  5
26E
330
267
100
AcDbEntity
  8
AM_VIS
100
AcDbVertex
100
AcDb2dVertex
 10
-107.5214487438084
 20
702.553849000106
 30
0.0
 42
0.0683539754613763
  0
VERTEX
  5
26F
330
267
100
AcDbEntity
  8
AM_VIS
100
AcDbVertex
100
AcDb2dVertex
 10
-108.2559721527379
 20
701.4422294446106
 30
0.0
 42
0.0497007566842083
 70
     1
  0
VERTEX
  5
270
330
267
100
AcDbEntity
  8
AM_VIS
100
AcDbVertex
100
AcDb2dVertex
 10
-108.8796540891472
 20
699.72347583178
 30
0.0
 42
0.0394838510338076
  0
VERTEX
  5
271
330
267
100
AcDbEntity
  8
AM_VIS
100
AcDbVertex
100
AcDb2dVertex
 10
-108.9486093958002
 20
699.3214009262435
 30
0.0
 42
0.0230266912405126
 70
     1
  0
VERTEX
  5
272
330
267
100
AcDbEntity
  8
AM_VIS
100
AcDbVertex
100
AcDb2dVertex
 10
-108.9799564090356
 20
698.623319998091
 30
0.0
  0
SEQEND
  5
273
330
267
100
AcDbEntity
  8
AM_VIS
  0
POLYLINE
  5
274
330
2
100
AcDbEntity
  8
AM_VIS
100
AcDb2dPolyline
 66
     1
 10
0.0
 20
0.0
 30
0.0
 70
     2
  0
VERTEX
  5
275
330
274
100
AcDbEntity
  8
AM_VIS
100
AcDbVertex
100
AcDb2dVertex
 10
-103.2224849399166
 20
704.864020867302
 30
0.0
 42
0.0984993638832404
  0
VERTEX
  5
276
330
274
100
AcDbEntity
  8
AM_VIS
100
AcDbVertex
100
AcDb2dVertex
 10
-105.5182946168149
 20
704.4074688268336
 30
0.0
 42
0.0984993638832469
 70
     1
  0
VERTEX
  5
277
330
274
100
AcDbEntity
  8
AM_VIS
100
AcDbVertex
100
AcDb2dVertex
 10
-107.4645902763788
 20
703.1070400345656
 30
0.0
 42
0.0984993638832223
  0
VERTEX
  5
278
330
274
100
AcDbEntity
  8
AM_VIS
100
AcDbVertex
100
AcDb2dVertex
 10
-108.7650190686468
 20
701.1607443750019
 30
0.0
 42
0.098499363883235
 70
     1
  0
VERTEX
  5
279
330
274
100
AcDbEntity
  8
AM_VIS
100
AcDbVertex
100
AcDb2dVertex
 10
-109.2215711091152
 20
698.8649346981034
 30
0.0
  0
SEQEND
  5
27A
330
274
100
AcDbEntity
  8
AM_VIS
  0
LINE
  5
27B
330
2
100
AcDbEntity
  8
AM_VIS
100
AcDbLine
 10
-109.2215711091152
 20
698.8649346981034
 30
0.0
 11
-108.9799564090355
 21
698.6233199980239
 31
0.0
  0
LINE
  5
27C
330
2
100
AcDbEntity
  8
AM_HID
100
AcDbLine
 10
-94.22157111346569
 20
700.1067659356781
 30
0.0
 11
-94.22157111346569
 21
700.5602041823756
 31
0.0
  0
LINE
  5
27D
330
2
100
AcDbEntity
  8
AM_HID
100
AcDbLine
 10
-94.22157111346569
 20
700.6634208685201
 30
0.0
 11
-94.22157111346569
 21
700.5602041823756
 31
0.0
  0
LINE
  5
27E
330
2
100
AcDbEntity
  8
AM_HID
100
AcDbLine
 10
-94.22157111346548
 20
701.5640208682589
 30
0.0
 11
-94.22157111346548
 21
701.5134011799818
 31
0.0
  0
LINE
  5
27F
330
2
100
AcDbEntity
  8
AM_HID
100
AcDbLine
 10
-94.22157111346548
 20
703.7146405559272
 30
0.0
 11
-94.22157111346548
 21
703.6640208676502
 31
0.0
  0
LWPOLYLINE
  5
280
330
2
100
AcDbEntity
  8
AM_VIS
100
AcDbPolyline
 90
       21
 70
     0
 43
0.0
 10
-101.8732261146488
 20
703.1410459230565
 10
-101.3520191477404
 20
702.8421540132676
 10
-100.7190309798144
 20
702.3218860174644
 10
-100.1958265219147
 20
701.6871253933897
 10
-99.79552503493824
 20
700.9414919747792
 10
-99.55096729456631
 20
700.1316783756248
 10
-99.47157111194327
 20
699.3140208689115
 10
-99.55090709310645
 20
698.4966704900751
 10
-99.79534615293312
 20
697.6869813578832
 10
-100.1955354025034
 20
696.9413489206703
 10
-100.7186439592736
 20
696.3065421054482
 10
-101.351798106472
 20
695.7860361895368
 10
-102.0959739269421
 20
695.3871985167234
 10
-102.9046633377205
 20
695.1432701355365
 10
-103.7215711107102
 20
695.0640208701446
 10
-104.5384788837002
 20
695.1432701355365
 10
-105.3471682944785
 20
695.3871985167234
 10
-106.0913441149486
 20
695.7860361895368
 10
-106.7244982621469
 20
696.3065421054482
 10
-107.2476068189172
 20
696.9413489206706
 10
-107.3275529584866
 20
697.0647109963049
  0
CIRCLE
  5
281
330
2
100
AcDbEntity
  8
AM_VIS
100
AcDbCircle
 10
-103.7215711107103
 20
699.3140208689115
 30
0.0
 40
2.249999999346853
  0
LWPOLYLINE
  5
282
330
2
100
AcDbEntity
  8
AM_HID
100
AcDbPolyline
 90
       10
 70
     0
 43
0.0
 10
-107.9005989955252
 20
696.1186718778176
 10
-107.4389380171287
 20
695.5911335154937
 10
-106.6553202465896
 20
694.9463131368064
 10
-105.734132450473
 20
694.4522129754588
 10
-104.7329740625733
 20
694.1500143292375
 10
-103.7215711107066
 20
694.0518302321777
 10
-102.7101681588399
 20
694.1500143292375
 10
-101.7090097709404
 20
694.4522129754589
 10
-100.7878219748236
 20
694.9463131368065
 10
-100.0836338082122
 20
695.5133984064548
  0
LINE
  5
283
330
2
100
AcDbEntity
  8
AM_HID
100
AcDbLine
 10
-108.058121828168
 20
692.2860126134484
 30
0.0
 11
-99.93562039308812
 21
692.2860126134484
 31
0.0
  0
ARC
  5
284
330
2
100
AcDbEntity
  8
AM_HID
100
AcDbCircle
 10
-103.7215711107067
 20
699.3140208689112
 30
0.0
 40
5.149999998509106
100
AcDbArc
 50
217.4020844499546
 51
313.7471113213345
  0
LWPOLYLINE
  5
285
330
2
100
AcDbEntity
  8
AM_VIS
100
AcDbPolyline
 90
        3
 70
     0
 43
0.0
 10
-107.3275529584865
 20
697.0647109963002
 10
-107.7677563978587
 20
698.0136806781991
 10
-107.9354510439493
 20
698.7611050545553
  0
POLYLINE
  5
286
330
2
100
AcDbEntity
  8
AM_VIS
100
AcDb2dPolyline
 66
     1
 10
0.0
 20
0.0
 30
0.0
 70
     2
  0
VERTEX
  5
287
330
286
100
AcDbEntity
  8
AM_VIS
100
AcDbVertex
100
AcDb2dVertex
 10
-107.1373840386722
 20
701.8427996316126
 30
0.0
 42
-0.0352150037073929
  0
VERTEX
  5
288
330
286
100
AcDbEntity
  8
AM_VIS
100
AcDbVertex
100
AcDb2dVertex
 10
-106.6021107512868
 20
702.4141771187114
 30
0.0
 42
-0.0526434863304077
 70
     1
  0
VERTEX
  5
289
330
286
100
AcDbEntity
  8
AM_VIS
100
AcDbVertex
100
AcDb2dVertex
 10
-106.1821439874464
 20
702.7284437070241
 30
0.0
 42
-0.0164366700531385
  0
VERTEX
  5
28A
330
286
100
AcDbEntity
  8
AM_VIS
100
AcDbVertex
100
AcDb2dVertex
 10
-105.6927775878156
 20
702.9985630278292
 30
0.0
 42
-0.0132411354036105
 70
     1
  0
VERTEX
  5
28B
330
286
100
AcDbEntity
  8
AM_VIS
100
AcDbVertex
100
AcDb2dVertex
 10
-105.066550242178
 20
703.297219898701
 30
0.0
 42
-0.0702201820384628
  0
VERTEX
  5
28C
330
286
100
AcDbEntity
  8
AM_VIS
100
AcDbVertex
100
AcDb2dVertex
 10
-104.3545453347399
 20
703.5006641980737
 30
0.0
 42
-0.0490863935186835
 70
     1
  0
VERTEX
  5
28D
330
286
100
AcDbEntity
  8
AM_VIS
100
AcDbVertex
100
AcDb2dVertex
 10
-103.2987318162738
 20
703.5429340768883
 30
0.0
  0
SEQEND
  5
28E
330
286
100
AcDbEntity
  8
AM_VIS
  0
CIRCLE
  5
28F
330
2
100
AcDbEntity
  8
AM_HID
100
AcDbCircle
 10
-103.7215711107103
 20
699.3140208689115
 30
0.0
 40
2.101631947500118
  0
POLYLINE
  5
290
330
2
100
AcDbEntity
  8
AM_VIS
100
AcDb2dPolyline
 66
     1
 10
0.0
 20
0.0
 30
0.0
 70
     2
  0
VERTEX
  5
291
330
290
100
AcDbEntity
  8
AM_VIS
100
AcDbVertex
100
AcDb2dVertex
 10
-107.9354510439512
 20
698.7611050545694
 30
0.0
 42
-0.0486683041783521
  0
VERTEX
  5
292
330
290
100
AcDbEntity
  8
AM_VIS
100
AcDbVertex
100
AcDb2dVertex
 10
-107.962855918979
 20
699.5860560958021
 30
0.0
 42
-0.0486683041783443
 70
     1
  0
VERTEX
  5
293
330
290
100
AcDbEntity
  8
AM_VIS
100
AcDbVertex
100
AcDb2dVertex
 10
-107.8302847560665
 20
700.4007463034088
 30
0.0
 42
-0.047373173261761
  0
VERTEX
  5
294
330
290
100
AcDbEntity
  8
AM_VIS
100
AcDbVertex
100
AcDb2dVertex
 10
-107.552302697299
 20
701.1546717051733
 30
0.0
 42
-0.0473731732617716
 70
     1
  0
VERTEX
  5
295
330
290
100
AcDbEntity
  8
AM_VIS
100
AcDbVertex
100
AcDb2dVertex
 10
-107.1373840386722
 20
701.8427996316126
 30
0.0
  0
SEQEND
  5
296
330
290
100
AcDbEntity
  8
AM_VIS
  0
LWPOLYLINE
  5
297
330
2
100
AcDbEntity
  8
AM_VIS
100
AcDbPolyline
 90
        3
 70
     0
 43
0.0
 10
-102.9880533466173
 20
703.5002425160869
 10
-102.4561269565197
 20
703.3712552819264
 10
-101.8732261146488
 20
703.1410459230565
  0
LWPOLYLINE
  5
298
330
2
100
AcDbEntity
  8
AM_VIS
100
AcDbPolyline
 90
        2
 70
     0
 43
0.0
 10
-103.2987318162738
 20
703.5429340768883
 10
-102.9880533466173
 20
703.5002425160869
  0
CIRCLE
  5
299
330
2
100
AcDbEntity
  8
AM_VIS
100
AcDbCircle
 10
-103.7215711107103
 20
699.3140208689115
 30
0.0
 40
2.181052492900859
  0
CIRCLE
  5
29A
330
2
100
AcDbEntity
  8
AM_VIS
100
AcDbCircle
 10
-103.7215711107101
 20
699.3140208689115
 30
0.0
 40
1.6499999995215
  0
LINE
  5
29B
330
2
100
AcDbEntity
  8
AM_VIS
100
AcDbLine
 10
-102.9880533466173
 20
703.5002425160869
 30
0.0
 11
-102.9880533466173
 21
704.629589274003
 31
0.0
  0
LINE
  5
29C
330
2
100
AcDbEntity
  8
AM_VIS
100
AcDbLine
 10
-102.9880533466173
 20
704.6295892740028
 30
0.0
 11
-103.2224849399165
 21
704.864020867302
 31
0.0
  0
LWPOLYLINE
  5
29D
330
2
100
AcDbEntity
  8
AM_HID
100
AcDbPolyline
 90
        3
 70
     0
 43
0.0
 10
-108.0608714414857
 20
696.0644055079933
 10
-108.0594703259663
 20
694.1754604517375
 10
-108.0581218281681
 20
692.2860126134484
  0
LWPOLYLINE
  5
29E
330
2
100
AcDbEntity
  8
AM_HID
100
AcDbPolyline
 90
        8
 70
     0
 43
0.0
 10
-107.9005989955252
 20
696.1186718778176
 10
-107.9084388857956
 20
696.1276306094068
 10
-107.9373912109633
 20
696.14697330994
 10
-107.9715711094731
 20
696.1537734412474
 10
-108.0057510079828
 20
696.14697330994
 10
-108.0347033331504
 20
696.1276306094068
 10
-108.0540892851292
 20
696.0986095885647
 10
-108.0608714414857
 20
696.0644055079935
  0
LINE
  5
29F
330
2
100
AcDbEntity
  8
AM_HID
100
AcDbLine
 10
-107.8126926048467
 20
696.1858864560658
 30
0.0
 11
-107.9005989955252
 21
696.1186718778176
 31
0.0
  0
LINE
  5
2A0
330
2
100
AcDbEntity
  8
AM_HID
100
AcDbLine
 10
-108.1715711094149
 20
696.0644055079935
 30
0.0
 11
-108.0608714414857
 21
696.0644055079935
 31
0.0
  0
ARC
  5
2A1
330
2
100
AcDbEntity
  8
AM_HID
100
AcDbCircle
 10
-107.971571109473
 20
696.0644055079934
 30
0.0
 40
0.1999999999419955
100
AcDbArc
 50
37.4020844501778
 51
180.0
  0
ELLIPSE
  5
2A2
330
2
100
AcDbEntity
  8
AM_HID
100
AcDbEllipse
 10
-95.11704824765127
 20
699.1640208689549
 30
0.0
 11
0.4999998388380426
 21
0.0004012691509885
 31
0.0
210
0.0
220
0.0
230
1.0
 40
0.0915753709254113
 41
1.570722834028654
 42
3.13282918358852
  0
LWPOLYLINE
  5
2A3
330
2
100
AcDbEntity
  8
AM_VIS
100
AcDbPolyline
 90
        9
 70
     0
 43
0.0
 10
-96.07037826998675
 20
701.7442120068506
 10
-96.45488979733478
 20
701.7070037472226
 10
-96.83558216647657
 20
701.5924542056767
 10
-97.18595695736297
 20
701.4051039978181
 10
-97.48410558849242
 20
701.1605028428377
 10
-97.72990945750336
 20
700.8628309734624
 10
-97.91805944452399
 20
700.5130992653924
 10
-98.0330421196627
 20
700.1331980312638
 10
-98.07037826940684
 20
699.7495659403171
  0
LINE
  5
2A4
330
2
100
AcDbEntity
  8
AM_VIS
100
AcDbLine
 10
-96.07037826998681
 20
701.7442120068506
 30
0.0
 11
-96.07037826998681
 21
701.7756797276874
 31
0.0
  0
LWPOLYLINE
  5
2A5
330
2
100
AcDbEntity
  8
AM_VIS
100
AcDbPolyline
 90
        9
 70
     0
 43
0.0
 10
-96.07037826998675
 20
701.7756797276874
 10
-96.4548899633703
 20
701.7384713156221
 10
-96.8355826583628
 20
701.6239212347346
 10
-97.18595790903918
 20
701.4365699918088
 10
-97.48410705626184
 20
701.1919672328067
 10
-97.72991012763453
 20
700.8942948918045
 10
-97.9180596796702
 20
700.5445625162506
 10
-98.03304216518951
 20
700.1646604393961
 10
-98.07037826940684
 20
699.7810274047458
  0
LINE
  5
2A6
330
2
100
AcDbEntity
  8
AM_HID
100
AcDbLine
 10
-98.77219080043756
 20
699.1640208689549
 30
0.0
 11
-98.7215711121604
 21
699.1640208689549
 31
0.0
  0
LINE
  5
2A7
330
2
100
AcDbEntity
  8
AM_HID
100
AcDbLine
 10
-96.62157111276947
 20
699.1640208689549
 30
0.0
 11
-96.57095142449231
 21
699.1640208689549
 31
0.0
  0
LINE
  5
2A8
330
2
100
AcDbEntity
  8
AM_HID
100
AcDbLine
 10
-95.72097111303071
 20
699.1640208689549
 30
0.0
 11
-95.61702920903826
 21
699.1640208689549
 31
0.0
  0
LWPOLYLINE
  5
2A9
330
2
100
AcDbEntity
  8
AM_HID
100
AcDbPolyline
 90
        7
 70
     0
 43
0.0
 10
-99.93333293402088
 20
695.4491871556201
 10
-99.94006792797097
 20
695.483184232441
 10
-99.95931983077406
 20
695.5120384366292
 10
-99.98813850369623
 20
695.5313145629887
 10
-100.0221711117832
 20
695.5380917713098
 10
-100.0561742335893
 20
695.5313267854397
 10
-100.0836338082122
 20
695.5133984064548
  0
LWPOLYLINE
  5
2AA
330
2
100
AcDbEntity
  8
AM_HID
100
AcDbPolyline
 90
        3
 70
     0
 43
0.0
 10
-99.93562039308812
 20
692.2860126134484
 10
-99.9344951016061
 20
693.867774961257
 10
-99.93333293402088
 20
695.4491871556203
  0
LINE
  5
2AB
330
2
100
AcDbEntity
  8
AM_HID
100
AcDbLine
 10
-100.1604664388459
 20
695.5936669206027
 30
0.0
 11
-100.0836338082122
 21
695.5133984064546
 31
0.0
  0
ARC
  5
2AC
330
2
100
AcDbEntity
  8
AM_HID
100
AcDbCircle
 10
-100.0221711117833
 20
695.4491871556201
 30
0.0
 40
0.1999999999419955
100
AcDbArc
 50
0.0000000000142616
 51
133.7471113214
  0
LINE
  5
2AD
330
2
100
AcDbEntity
  8
AM_HID
100
AcDbLine
 10
-99.82217111184127
 20
695.4491871556203
 30
0.0
 11
-99.93333293402095
 21
695.4491871556203
 31
0.0
  0
LWPOLYLINE
  5
2AE
330
2
100
AcDbEntity
  8
AM_HID
100
AcDbPolyline
 90
        6
 70
     0
 43
0.0
 10
-94.22157111346569
 20
700.106765935678
 10
-94.37888241655867
 20
700.0928281386959
 10
-94.81031857797011
 20
699.8858277800744
 10
-95.02059651194242
 20
699.6151461938259
 10
-95.10013436445076
 20
699.3838986221716
 10
-95.11704824765137
 20
699.2098085690258
  0
LWPOLYLINE
  5
2AF
330
2
100
AcDbEntity
  8
AM_HID
100
AcDbPolyline
 90
        6
 70
     0
 43
0.0
 10
-95.61702920903826
 20
699.1640208689549
 10
-95.59059504186643
 20
699.435068890603
 10
-95.46656210605755
 20
699.7950607710992
 10
-95.13883989123753
 20
700.2163724975154
 10
-94.46664569170151
 20
700.5385151660751
 10
-94.22157111346569
 20
700.5602041823756
  0
ARC
  5
2B0
330
2
100
AcDbEntity
  8
AM_HID
100
AcDbCircle
 10
-94.22157111346553
 20
699.1640208689548
 30
0.0
 40
2.399999999304268
100
AcDbArc
 50
90.00000000000069
 51
179.9999999999997
  0
ARC
  5
2B1
330
2
100
AcDbEntity
  8
AM_HID
100
AcDbCircle
 10
-94.22157111346553
 20
699.1640208689548
 30
0.0
 40
2.349380311027116
100
AcDbArc
 50
90.00000000000069
 51
179.9999999999996
  0
ARC
  5
2B2
330
2
100
AcDbEntity
  8
AM_HID
100
AcDbCircle
 10
-94.22157111346553
 20
699.1640208689548
 30
0.0
 40
4.550619686972432
100
AcDbArc
 50
90.00000000000033
 51
179.9999999999998
  0
ARC
  5
2B3
330
2
100
AcDbEntity
  8
AM_HID
100
AcDbCircle
 10
-94.22157111346553
 20
699.1640208689548
 30
0.0
 40
4.49999999869527
100
AcDbArc
 50
90.00000000000033
 51
179.9999999999998
  0
ARC
  5
2B4
330
2
100
AcDbEntity
  8
AM_HID
100
AcDbCircle
 10
-94.22157111346576
 20
699.1640208689548
 30
0.0
 40
1.499399999565175
100
AcDbArc
 50
90.0000000000011
 51
179.9999999999992
  0
LINE
  5
2B5
330
2
100
AcDbEntity
  8
AM_VIS
100
AcDbLine
 10
-108.0721907977401
 20
717.6267758532937
 30
0.0
 11
-109.2215711091151
 21
717.6267758532937
 31
0.0
  0
ARC
  5
2B6
330
2
100
AcDbEntity
  8
AM_VIS
100
AcDbCircle
 10
-107.4856992405181
 20
731.1267758532936
 30
0.0
 40
1.5
100
AcDbArc
 50
89.99999999999994
 51
178.9999999999993
  0
LINE
  5
2B7
330
2
100
AcDbEntity
  8
AM_VIS
100
AcDbLine
 10
-109.2215711091151
 20
717.6267758532937
 30
0.0
 11
-108.9854707832527
 21
731.1529544629496
 31
0.0
  0
LINE
  5
2B8
330
2
100
AcDbEntity
  8
AM_HID
100
AcDbLine
 10
-90.78256854968788
 20
717.6267758532937
 30
0.0
 11
-90.89601783093474
 21
730.6267758495236
 31
0.0
  0
LINE
  5
2B9
330
2
100
AcDbEntity
  8
AM_VIS
100
AcDbLine
 10
-95.17157111318914
 20
717.6267758532937
 30
0.0
 11
-95.17157111318914
 21
730.2458085316201
 31
0.0
  0
LINE
  5
2BA
330
2
100
AcDbEntity
  8
AM_HID
100
AcDbLine
 10
-90.98256854962988
 20
717.6267758532937
 30
0.0
 11
-90.98256854962988
 21
730.6267758495236
 31
0.0
  0
LINE
  5
2BB
330
2
100
AcDbEntity
  8
AM_HID
100
AcDbLine
 10
-90.83037543686073
 20
717.6267758532937
 30
0.0
 11
-90.9167064331574
 21
730.6267758495236
 31
0.0
  0
LINE
  5
2BC
330
2
100
AcDbEntity
  8
AM_HID
100
AcDbLine
 10
-91.77217111417514
 20
717.6267758532937
 30
0.0
 11
-91.88562039542217
 21
730.6267758495236
 31
0.0
  0
LINE
  5
2BD
330
2
100
AcDbEntity
  8
AM_HID
100
AcDbLine
 10
-95.17217111318933
 20
717.6267758532937
 30
0.0
 11
-95.17217111318933
 21
730.6267758495236
 31
0.0
  0
LINE
  5
2BE
330
2
100
AcDbEntity
  8
AM_HID
100
AcDbLine
 10
-90.72219080277148
 20
717.6267758532937
 30
0.0
 11
-90.67157111449432
 21
720.5267758524527
 31
0.0
  0
LINE
  5
2BF
330
2
100
AcDbEntity
  8
AM_HID
100
AcDbLine
 10
-95.17217111318933
 20
730.6267758495236
 30
0.0
 11
-96.64356285526105
 21
730.6267758495236
 31
0.0
  0
LINE
  5
2C0
330
2
100
AcDbEntity
  8
AM_HID
100
AcDbLine
 10
-99.89564201312113
 20
730.3570459703515
 30
0.0
 11
-100.0067373973733
 21
717.6267758532937
 31
0.0
  0
LINE
  5
2C1
330
2
100
AcDbEntity
  8
AM_HID
100
AcDbLine
 10
-98.52157111221345
 20
717.6267758532937
 30
0.0
 11
-98.40938047398896
 21
730.482549644582
 31
0.0
  0
LINE
  5
2C2
330
2
100
AcDbEntity
  8
AM_HID
100
AcDbLine
 10
-100.5113236830586
 20
730.3039550360957
 30
0.0
 11
-100.6219557497468
 21
717.6267758532937
 31
0.0
  0
LINE
  5
2C3
330
2
100
AcDbEntity
  8
AM_HID
100
AcDbLine
 10
-101.4215711113768
 20
717.6267758532937
 30
0.0
 11
-101.5699391632242
 21
726.1267758508287
 31
0.0
  0
LINE
  5
2C4
330
2
100
AcDbEntity
  8
AM_HID
100
AcDbLine
 10
-105.7732030582244
 20
726.1267758508287
 30
0.0
 11
-105.9215711100718
 21
717.6267758532937
 31
0.0
  0
LINE
  5
2C5
330
2
100
AcDbEntity
  8
AM_HID
100
AcDbLine
 10
-102.9808702398365
 20
731.4688727502884
 30
0.0
 11
-103.2224849399164
 21
717.6267758532937
 31
0.0
  0
LINE
  5
2C6
330
2
100
AcDbEntity
  8
AM_HID
100
AcDbLine
 10
-100.5434366978764
 20
717.6267758532937
 30
0.0
 11
-100.4762221196282
 21
730.3069992306867
 31
0.0
  0
LINE
  5
2C7
330
2
100
AcDbEntity
  8
AM_HID
100
AcDbLine
 10
-100.4219557498038
 20
717.6267758532937
 30
0.0
 11
-100.4219557498038
 21
730.3117013710775
 31
0.0
  0
LINE
  5
2C8
330
2
100
AcDbEntity
  8
AM_HID
100
AcDbLine
 10
-99.95121716241408
 20
717.6267758532937
 30
0.0
 11
-99.870948648266
 21
730.3591618487263
 31
0.0
  0
LINE
  5
2C9
330
2
100
AcDbEntity
  8
AM_HID
100
AcDbLine
 10
-99.80673739743128
 20
717.6267758532937
 30
0.0
 11
-99.80673739743128
 21
730.3646590027743
 31
0.0
  0
LINE
  5
2CA
330
2
100
AcDbEntity
  8
AM_VIS
100
AcDbLine
 10
-105.8709514217947
 20
717.6267758532937
 30
0.0
 11
-105.9215711100718
 21
720.5267758524527
 31
0.0
  0
LINE
  5
2CB
330
2
100
AcDbEntity
  8
AM_VIS
100
AcDbLine
 10
-108.021571109463
 20
720.5267758524527
 30
0.0
 11
-108.0721907977401
 21
717.6267758532937
 31
0.0
  0
LINE
  5
2CC
330
2
100
AcDbEntity
  8
AM_VIS
100
AcDbLine
 10
-104.9118471853205
 20
730.1311391172727
 30
0.0
 11
-105.0209711103329
 21
717.6267758532937
 31
0.0
  0
LINE
  5
2CD
330
2
100
AcDbEntity
  8
AM_VIS
100
AcDbLine
 10
-105.0209711103329
 20
717.6267758532937
 30
0.0
 11
-105.8709514217947
 21
717.6267758532937
 31
0.0
  0
LINE
  5
2CE
330
2
100
AcDbEntity
  8
AM_VIS
100
AcDbLine
 10
-105.8709514217949
 20
717.6267758532937
 30
0.0
 11
-108.0721907977404
 21
717.6267758532937
 31
0.0
  0
LINE
  5
2CF
330
2
100
AcDbEntity
  8
AM_VIS
100
AcDbLine
 10
-103.5215711107678
 20
717.6267758532937
 30
0.0
 11
-105.0209711103329
 21
717.6267758532937
 31
0.0
  0
LINE
  5
2D0
330
2
100
AcDbEntity
  8
AM_HID
100
AcDbLine
 10
-101.4215711113775
 20
730.5767758495383
 30
0.0
 11
-99.42157111195729
 21
732.5767758489587
 31
0.0
  0
LINE
  5
2D1
330
2
100
AcDbEntity
  8
AM_HID
100
AcDbLine
 10
-102.0215711112027
 20
726.1267758508287
 30
0.0
 11
-102.0215711112027
 21
726.6267758506836
 31
0.0
  0
LINE
  5
2D2
330
2
100
AcDbEntity
  8
AM_HID
100
AcDbLine
 10
-101.4905186178235
 20
726.6267758506836
 30
0.0
 11
-101.4215711113775
 21
730.5767758495382
 31
0.0
  0
LINE
  5
2D3
330
2
100
AcDbEntity
  8
AM_HID
100
AcDbLine
 10
-105.3215711102459
 20
726.6267758506836
 30
0.0
 11
-105.3215711102459
 21
726.1267758508287
 31
0.0
  0
LINE
  5
2D4
330
2
100
AcDbEntity
  8
AM_HID
100
AcDbLine
 10
-105.9215711100711
 20
730.5767758495383
 30
0.0
 11
-105.8526236036251
 21
726.6267758506836
 31
0.0
  0
LINE
  5
2D5
330
2
100
AcDbEntity
  8
AM_HID
100
AcDbLine
 10
-107.9059993496962
 20
732.5612040891638
 30
0.0
 11
-105.9215711100711
 21
730.5767758495383
 31
0.0
  0
LINE
  5
2D6
330
2
100
AcDbEntity
  8
AM_VIS
100
AcDbLine
 10
-105.9215711100718
 20
720.5267758524527
 30
0.0
 11
-108.021571109463
 21
720.5267758524527
 31
0.0
  0
LINE
  5
2D7
330
2
100
AcDbEntity
  8
AM_HID
100
AcDbLine
 10
-103.5215711107677
 20
720.5267758524527
 30
0.0
 11
-105.9215711100723
 21
720.5267758524527
 31
0.0
  0
ARC
  5
2D8
330
2
100
AcDbEntity
  8
AM_VIS
100
AcDbCircle
 10
-104.4118662237884
 20
730.1267758495234
 30
0.0
 40
0.5
100
AcDbArc
 50
90.0
 51
179.4999999999997
  0
LINE
  5
2D9
330
2
100
AcDbEntity
  8
AM_HID
100
AcDbLine
 10
-105.9215711100711
 20
730.5767758495383
 30
0.0
 11
-101.4215711113775
 21
730.5767758495383
 31
0.0
  0
LINE
  5
2DA
330
2
100
AcDbEntity
  8
AM_HID
100
AcDbLine
 10
-105.7732030582244
 20
726.1267758508287
 30
0.0
 11
-101.5699391632242
 21
726.1267758508287
 31
0.0
  0
LINE
  5
2DB
330
2
100
AcDbEntity
  8
AM_HID
100
AcDbLine
 10
-105.8526236036251
 20
726.6267758506836
 30
0.0
 11
-101.4905186178235
 21
726.6267758506836
 31
0.0
  0
LINE
  5
2DC
330
2
100
AcDbEntity
  8
AM_VIS
100
AcDbLine
 10
-95.17157111318914
 20
717.6267758532937
 30
0.0
 11
-103.5215711107678
 21
717.6267758532937
 31
0.0
  0
LINE
  5
2DD
330
2
100
AcDbEntity
  8
AM_HID
100
AcDbLine
 10
-95.17157111318937
 20
720.5267758524527
 30
0.0
 11
-103.5215711107677
 21
720.5267758524527
 31
0.0
  0
LINE
  5
2DE
330
2
100
AcDbEntity
  8
AM_VIS
100
AcDbLine
 10
-104.4118662237884
 20
730.6267758495234
 30
0.0
 11
-90.67157111449432
 21
730.6267758495236
 31
0.0
  0
LINE
  5
2DF
330
2
100
AcDbEntity
  8
1
100
AcDbLine
 10
-98.07037826940678
 20
731.7267758532937
 30
0.0
 11
-98.07037826940678
 21
732.6267758532936
 31
0.0
  0
LINE
  5
2E0
330
2
100
AcDbEntity
  8
AM_VIS
100
AcDbLine
 10
-86.17097111579937
 20
717.6267758532937
 30
0.0
 11
-86.17097111579937
 21
730.6267758495236
 31
0.0
  0
LINE
  5
2E1
330
2
100
AcDbEntity
  8
AM_VIS
100
AcDbLine
 10
-87.67097111536442
 20
717.6267758532937
 30
0.0
 11
-87.55752183411743
 21
730.6267758495236
 31
0.0
  0
LINE
  5
2E2
330
2
100
AcDbEntity
  8
AM_HID
100
AcDbLine
 10
-88.57157111510344
 20
720.5267758524527
 30
0.0
 11
-88.52095142682628
 21
717.6267758532937
 31
0.0
  0
LINE
  5
2E3
330
2
100
AcDbEntity
  8
AM_HID
100
AcDbLine
 10
-87.83557111531678
 20
720.5267758524527
 30
0.0
 11
-87.83557111531678
 21
717.6267758532937
 31
0.0
  0
LINE
  5
2E4
330
2
100
AcDbEntity
  8
AM_VIS
100
AcDbLine
 10
-86.17097111579937
 20
717.6267758532937
 30
0.0
 11
-87.67097111536442
 21
717.6267758532937
 31
0.0
  0
LINE
  5
2E5
330
2
100
AcDbEntity
  8
AM_HID
100
AcDbLine
 10
-87.83557111531678
 20
720.5267758524527
 30
0.0
 11
-88.57157111510355
 21
720.5267758524527
 31
0.0
  0
LINE
  5
2E6
330
2
100
AcDbEntity
  8
2
100
AcDbLine
 10
-24.37157113372155
 20
714.4435557981505
 30
0.0
 11
-24.37157113372155
 21
742.3676666420699
 31
0.0
  0
LINE
  5
2E7
330
2
100
AcDbEntity
  8
AM_VIS
100
AcDbLine
 10
55.66872395634537
 20
730.6267758495234
 30
0.0
 11
41.92842884705126
 21
730.6267758495236
 31
0.0
  0
LINE
  5
2E8
330
2
100
AcDbEntity
  8
AM_HID
100
AcDbLine
 10
46.42842884574631
 20
720.5267758524527
 30
0.0
 11
54.77842884332469
 21
720.5267758524527
 31
0.0
  0
LINE
  5
2E9
330
2
100
AcDbEntity
  8
AM_VIS
100
AcDbLine
 10
46.42842884574608
 20
717.6267758532937
 30
0.0
 11
54.7784288433248
 21
717.6267758532937
 31
0.0
  0
LINE
  5
2EA
330
2
100
AcDbEntity
  8
AM_HID
100
AcDbLine
 10
57.10948133618202
 20
726.6267758506836
 30
0.0
 11
52.7473763503805
 21
726.6267758506836
 31
0.0
  0
LINE
  5
2EB
330
2
100
AcDbEntity
  8
AM_HID
100
AcDbLine
 10
57.03006079078133
 20
726.1267758508287
 30
0.0
 11
52.8267968957812
 21
726.1267758508287
 31
0.0
  0
LINE
  5
2EC
330
2
100
AcDbEntity
  8
AM_HID
100
AcDbLine
 10
57.17842884262811
 20
730.5767758495383
 30
0.0
 11
52.67842884393442
 21
730.5767758495383
 31
0.0
  0
LWPOLYLINE
  5
2ED
330
2
100
AcDbEntity
  8
AM_VIS
100
AcDbPolyline
 90
        3
 70
     0
 43
0.0
 10
53.13008384720524
 20
703.1410459230565
 10
53.71298468907617
 20
703.3712552819263
 10
54.24491107917368
 20
703.5002425160866
  0
CIRCLE
  5
2EE
330
2
100
AcDbEntity
  8
AM_VIS
100
AcDbCircle
 10
54.97842884326672
 20
699.3140208689115
 30
0.0
 40
2.249999999346853
  0
CIRCLE
  5
2EF
330
2
100
AcDbEntity
  8
AM_HID
100
AcDbCircle
 10
54.97842884326672
 20
699.3140208689115
 30
0.0
 40
2.101631947500118
  0
CIRCLE
  5
2F0
330
2
100
AcDbEntity
  8
AM_VIS
100
AcDbCircle
 10
54.97842884326672
 20
699.3140208689115
 30
0.0
 40
2.181052492900859
  0
CIRCLE
  5
2F1
330
2
100
AcDbEntity
  8
AM_VIS
100
AcDbCircle
 10
54.97842884326672
 20
699.3140208689115
 30
0.0
 40
1.6499999995215
  0
LWPOLYLINE
  5
2F2
330
2
100
AcDbEntity
  8
AM_VIS
100
AcDbPolyline
 90
       21
 70
     0
 43
0.0
 10
58.5844106910431
 20
697.0647109963003
 10
58.50446455147346
 20
696.9413489206703
 10
57.98135599470334
 20
696.306542105448
 10
57.34820184750493
 20
695.7860361895366
 10
56.60402602703482
 20
695.3871985167234
 10
55.79533661625646
 20
695.1432701355364
 10
54.97842884326667
 20
695.0640208701445
 10
54.16152107027676
 20
695.1432701355364
 10
53.35283165949852
 20
695.3871985167234
 10
52.60865583902841
 20
695.7860361895368
 10
51.97550169182989
 20
696.3065421054481
 10
51.45239313505988
 20
696.9413489206703
 10
51.05220388548957
 20
697.6869813578832
 10
50.80776482566284
 20
698.4966704900751
 10
50.72842884449972
 20
699.3140208689115
 10
50.80782502712271
 20
700.1316783756246
 10
51.05238276749457
 20
700.9414919747792
 10
51.45268425447113
 20
701.6871253933897
 10
51.97588871237076
 20
702.3218860174645
 10
52.60887688029675
 20
702.8421540132677
 10
53.13008384720524
 20
703.1410459230565
  0
LWPOLYLINE
  5
2F3
330
2
100
AcDbEntity
  8
AM_HID
100
AcDbPolyline
 90
       10
 70
     0
 43
0.0
 10
51.3404915407732
 20
695.5133984064532
 10
52.04467970738472
 20
694.9463131368049
 10
52.96586750350138
 20
694.4522129754573
 10
53.96702589140102
 20
694.1500143292362
 10
54.97842884326757
 20
694.0518302321761
 10
55.98983179513425
 20
694.1500143292362
 10
56.990990183034
 20
694.4522129754573
 10
57.91217797915056
 20
694.9463131368049
 10
58.69579574968963
 20
695.5911335154922
 10
59.15745672808577
 20
696.1186718778153
  0
LINE
  5
2F4
330
2
100
AcDbEntity
  8
AM_HID
100
AcDbLine
 10
51.19247812564902
 20
692.2860126134483
 30
0.0
 11
59.31497956072928
 21
692.2860126134483
 31
0.0
  0
ARC
  5
2F5
330
2
100
AcDbEntity
  8
AM_HID
100
AcDbCircle
 10
54.97842884326764
 20
699.3140208689096
 30
0.0
 40
5.149999998509106
100
AcDbArc
 50
226.252888678663
 51
322.5979155500371
  0
LINE
  5
2F6
330
2
100
AcDbEntity
  8
AM_HID
100
AcDbLine
 10
45.47842884602187
 20
700.5602041823758
 30
0.0
 11
45.47842884602187
 21
700.1067659356781
 31
0.0
  0
LWPOLYLINE
  5
2F7
330
2
100
AcDbEntity
  8
AM_HID
100
AcDbPolyline
 90
        6
 70
     0
 43
0.0
 10
45.47842884602175
 20
700.5602041823758
 10
45.72245658450277
 20
700.5387015071675
 10
46.39350923017253
 20
700.2182773016097
 10
46.72236584312531
 20
699.7971383043496
 10
46.84723977431576
 20
699.4361453656808
 10
46.8738869415946
 20
699.164020868955
  0
ELLIPSE
  5
2F8
330
2
100
AcDbEntity
  8
AM_HID
100
AcDbEllipse
 10
46.3739059802075
 20
699.164020868955
 30
0.0
 11
0.4999998388380426
 21
-0.0004012691509818
 31
0.0
210
0.0
220
0.0
230
1.0
 40
0.0915753709254254
 41
0.0087634700012741
 42
1.570869819561138
  0
LWPOLYLINE
  5
2F9
330
2
100
AcDbEntity
  8
AM_HID
100
AcDbPolyline
 90
        6
 70
     0
 43
0.0
 10
46.3739059802075
 20
699.2098085690258
 10
46.35685560086017
 20
699.3845900647548
 10
46.27677814272897
 20
699.6164808369107
 10
46.06577192695158
 20
699.8870516744534
 10
45.63506819762119
 20
700.0929478846771
 10
45.47842884602175
 20
700.1067659356781
  0
LINE
  5
2FA
330
2
100
AcDbEntity
  8
AM_HID
100
AcDbLine
 10
46.97782884558705
 20
699.164020868955
 30
0.0
 11
46.8738869415946
 21
699.164020868955
 31
0.0
  0
LINE
  5
2FB
330
2
100
AcDbEntity
  8
AM_HID
100
AcDbLine
 10
45.47842884602187
 20
700.6634208685203
 30
0.0
 11
45.47842884602187
 21
700.5602041823758
 31
0.0
  0
ARC
  5
2FC
330
2
100
AcDbEntity
  8
AM_HID
100
AcDbCircle
 10
45.47842884602181
 20
699.164020868955
 30
0.0
 40
1.499399999565175
100
AcDbArc
 50
359.9999999999997
 51
89.99999999999998
  0
LINE
  5
2FD
330
2
100
AcDbEntity
  8
AM_VIS
100
AcDbLine
 10
46.92962168854319
 20
701.7756797276872
 30
0.0
 11
46.92962168854319
 21
701.7442120068506
 31
0.0
  0
LWPOLYLINE
  5
2FE
330
2
100
AcDbEntity
  8
AM_VIS
100
AcDbPolyline
 90
        9
 70
     0
 43
0.0
 10
48.92962168796305
 20
699.749565940317
 10
48.89228553821874
 20
700.1331980312638
 10
48.77730286308019
 20
700.5130992653924
 10
48.58915287605964
 20
700.8628309734624
 10
48.34334900704869
 20
701.1605028428377
 10
48.04520037591919
 20
701.4051039978181
 10
47.69482558503296
 20
701.5924542056766
 10
47.31413321589116
 20
701.7070037472225
 10
46.92962168854307
 20
701.7442120068506
  0
LWPOLYLINE
  5
2FF
330
2
100
AcDbEntity
  8
AM_VIS
100
AcDbPolyline
 90
        9
 70
     0
 43
0.0
 10
48.92962168796305
 20
699.7810274047458
 10
48.89228558374577
 20
700.1646604393962
 10
48.77730309822641
 20
700.5445625162506
 10
48.58915354619091
 20
700.8942948918043
 10
48.34335047481807
 20
701.1919672328067
 10
48.04520132759558
 20
701.4365699918088
 10
47.69482607691919
 20
701.6239212347345
 10
47.31413338192669
 20
701.7384713156221
 10
46.92962168854307
 20
701.7756797276872
  0
LINE
  5
300
330
2
100
AcDbEntity
  8
AM_HID
100
AcDbLine
 10
45.47842884602175
 20
703.7146405559274
 30
0.0
 11
45.47842884602175
 21
703.6640208676502
 31
0.0
  0
ARC
  5
301
330
2
100
AcDbEntity
  8
AM_HID
100
AcDbCircle
 10
45.4784288460217
 20
699.164020868955
 30
0.0
 40
4.550619686972546
100
AcDbArc
 50
359.9999999999996
 51
89.99999999999978
  0
LINE
  5
302
330
2
100
AcDbEntity
  8
AM_HID
100
AcDbLine
 10
50.02904853299412
 20
699.164020868955
 30
0.0
 11
49.97842884471686
 21
699.164020868955
 31
0.0
  0
ARC
  5
303
330
2
100
AcDbEntity
  8
AM_HID
100
AcDbCircle
 10
45.4784288460217
 20
699.164020868955
 30
0.0
 40
4.499999998695383
100
AcDbArc
 50
359.9999999999996
 51
89.99999999999978
  0
LINE
  5
304
330
2
100
AcDbEntity
  8
AM_HID
100
AcDbLine
 10
45.47842884602175
 20
701.5640208682591
 30
0.0
 11
45.47842884602175
 21
701.5134011799821
 31
0.0
  0
ARC
  5
305
330
2
100
AcDbEntity
  8
AM_HID
100
AcDbCircle
 10
45.4784288460217
 20
699.164020868955
 30
0.0
 40
2.399999999304389
100
AcDbArc
 50
359.9999999999996
 51
89.99999999999969
  0
LINE
  5
306
330
2
100
AcDbEntity
  8
AM_HID
100
AcDbLine
 10
47.87842884532596
 20
699.164020868955
 30
0.0
 11
47.82780915704882
 21
699.164020868955
 31
0.0
  0
ARC
  5
307
330
2
100
AcDbEntity
  8
AM_HID
100
AcDbCircle
 10
45.4784288460217
 20
699.164020868955
 30
0.0
 40
2.34938031102723
100
AcDbArc
 50
359.9999999999996
 51
89.99999999999962
  0
LWPOLYLINE
  5
308
330
2
100
AcDbEntity
  8
AM_HID
100
AcDbPolyline
 90
        3
 70
     0
 43
0.0
 10
51.19019066658177
 20
695.4491871556184
 10
51.19135283416699
 20
693.8677749612557
 10
51.19247812564902
 20
692.2860126134483
  0
LWPOLYLINE
  5
309
330
2
100
AcDbEntity
  8
AM_HID
100
AcDbPolyline
 90
        7
 70
     0
 43
0.0
 10
51.3404915407732
 20
695.5133984064532
 10
51.31303196615021
 20
695.5313267854383
 10
51.27902884434411
 20
695.5380917713084
 10
51.245025722538
 20
695.5313267854381
 10
51.21622264808002
 20
695.5120835367022
 10
51.19693783104151
 20
695.4832136668703
 10
51.19019066658177
 20
695.4491871556184
  0
LINE
  5
30A
330
2
100
AcDbEntity
  8
AM_HID
100
AcDbLine
 10
51.41732417140667
 20
695.5936669206014
 30
0.0
 11
51.3404915407732
 21
695.5133984064532
 31
0.0
  0
LINE
  5
30B
330
2
100
AcDbEntity
  8
AM_HID
100
AcDbLine
 10
51.07902884440216
 20
695.4491871556184
 30
0.0
 11
51.19019066658177
 21
695.4491871556184
 31
0.0
  0
ARC
  5
30C
330
2
100
AcDbEntity
  8
AM_HID
100
AcDbCircle
 10
51.27902884434405
 20
695.4491871556183
 30
0.0
 40
0.1999999999420787
100
AcDbArc
 50
46.25288867866272
 51
180.0
  0
ARC
  5
30D
330
2
100
AcDbEntity
  8
4
100
AcDbCircle
 10
46.93212554302834
 20
699.7464176187747
 30
0.0
 40
1.997795957127424
100
AcDbArc
 50
0.9926408459621487
 51
90.071809301427
  0
ARC
  5
30E
330
2
100
AcDbEntity
  8
4
100
AcDbCircle
 10
46.93233217370101
 20
699.7783903116759
 30
0.0
 40
1.997291255185547
100
AcDbArc
 50
0.0756496312741948
 51
90.07775501306797
  0
LINE
  5
30F
330
2
100
AcDbEntity
  8
AM_HID
100
AcDbLine
 10
39.09242884787372
 20
720.5267758524527
 30
0.0
 11
39.82842884766049
 21
720.5267758524527
 31
0.0
  0
LINE
  5
310
330
2
100
AcDbEntity
  8
AM_VIS
100
AcDbLine
 10
37.42782884835631
 20
717.6267758532937
 30
0.0
 11
38.92782884792135
 21
717.6267758532937
 31
0.0
  0
LINE
  5
311
330
2
100
AcDbEntity
  8
AM_HID
100
AcDbLine
 10
39.09242884787372
 20
720.5267758524527
 30
0.0
 11
39.09242884787372
 21
717.6267758532937
 31
0.0
  0
LINE
  5
312
330
2
100
AcDbEntity
  8
AM_HID
100
AcDbLine
 10
39.82842884766038
 20
720.5267758524527
 30
0.0
 11
39.77780915938323
 21
717.6267758532937
 31
0.0
  0
LINE
  5
313
330
2
100
AcDbEntity
  8
AM_VIS
100
AcDbLine
 10
38.92782884792135
 20
717.6267758532937
 30
0.0
 11
38.81437956667438
 21
730.6267758495236
 31
0.0
  0
LINE
  5
314
330
2
100
AcDbEntity
  8
AM_VIS
100
AcDbLine
 10
37.42782884835631
 20
717.6267758532937
 30
0.0
 11
37.42782884835631
 21
730.6267758495236
 31
0.0
  0
LINE
  5
315
330
2
100
AcDbEntity
  8
1
100
AcDbLine
 10
49.32723600196372
 20
731.7267758532937
 30
0.0
 11
49.32723600196372
 21
732.6267758532936
 31
0.0
  0
LINE
  5
316
330
2
100
AcDbEntity
  8
AM_HID
100
AcDbLine
 10
52.7473763503805
 20
726.6267758506836
 30
0.0
 11
52.67842884393442
 21
730.5767758495382
 31
0.0
  0
LINE
  5
317
330
2
100
AcDbEntity
  8
AM_HID
100
AcDbLine
 10
53.27842884375965
 20
726.1267758508287
 30
0.0
 11
53.27842884375965
 21
726.6267758506836
 31
0.0
  0
LINE
  5
318
330
2
100
AcDbEntity
  8
AM_HID
100
AcDbLine
 10
52.67842884393442
 20
730.5767758495383
 30
0.0
 11
50.67842884451422
 21
732.5767758489587
 31
0.0
  0
LINE
  5
319
330
2
100
AcDbEntity
  8
AM_HID
100
AcDbLine
 10
51.06359512998821
 20
717.6267758532937
 30
0.0
 11
51.06359512998821
 21
730.3646590027743
 31
0.0
  0
LINE
  5
31A
330
2
100
AcDbEntity
  8
AM_HID
100
AcDbLine
 10
51.20807489497102
 20
717.6267758532937
 30
0.0
 11
51.12780638082293
 21
730.3591618487263
 31
0.0
  0
LINE
  5
31B
330
2
100
AcDbEntity
  8
AM_HID
100
AcDbLine
 10
51.67881348236076
 20
717.6267758532937
 30
0.0
 11
51.67881348236076
 21
730.3117013710775
 31
0.0
  0
LINE
  5
31C
330
2
100
AcDbEntity
  8
AM_HID
100
AcDbLine
 10
51.80029443043335
 20
717.6267758532937
 30
0.0
 11
51.73307985218517
 21
730.3069992306867
 31
0.0
  0
LINE
  5
31D
330
2
100
AcDbEntity
  8
AM_HID
100
AcDbLine
 10
52.67842884393374
 20
717.6267758532937
 30
0.0
 11
52.8267968957812
 21
726.1267758508287
 31
0.0
  0
LINE
  5
31E
330
2
100
AcDbEntity
  8
AM_HID
100
AcDbLine
 10
51.7681814156156
 20
730.3039550360957
 30
0.0
 11
51.87881348230374
 21
717.6267758532937
 31
0.0
  0
LINE
  5
31F
330
2
100
AcDbEntity
  8
AM_HID
100
AcDbLine
 10
49.77842884477039
 20
717.6267758532937
 30
0.0
 11
49.66623820654589
 21
730.482549644582
 31
0.0
  0
LINE
  5
320
330
2
100
AcDbEntity
  8
AM_HID
100
AcDbLine
 10
51.15249974567806
 20
730.3570459703515
 30
0.0
 11
51.26359512993028
 21
717.6267758532937
 31
0.0
  0
LINE
  5
321
330
2
100
AcDbEntity
  8
AM_HID
100
AcDbLine
 10
46.42902884574627
 20
730.6267758495236
 30
0.0
 11
47.90042058781799
 21
730.6267758495236
 31
0.0
  0
LINE
  5
322
330
2
100
AcDbEntity
  8
AM_HID
100
AcDbLine
 10
41.97904853532842
 20
717.6267758532937
 30
0.0
 11
41.92842884705126
 21
720.5267758524527
 31
0.0
  0
LINE
  5
323
330
2
100
AcDbEntity
  8
AM_HID
100
AcDbLine
 10
46.42902884574627
 20
717.6267758532937
 30
0.0
 11
46.42902884574627
 21
730.6267758495236
 31
0.0
  0
LINE
  5
324
330
2
100
AcDbEntity
  8
AM_HID
100
AcDbLine
 10
43.02902884673208
 20
717.6267758532937
 30
0.0
 11
43.1424781279791
 21
730.6267758495236
 31
0.0
  0
LINE
  5
325
330
2
100
AcDbEntity
  8
AM_HID
100
AcDbLine
 10
42.08723316941766
 20
717.6267758532937
 30
0.0
 11
42.17356416571433
 21
730.6267758495236
 31
0.0
  0
LINE
  5
326
330
2
100
AcDbEntity
  8
AM_HID
100
AcDbLine
 10
42.23942628218682
 20
717.6267758532937
 30
0.0
 11
42.23942628218682
 21
730.6267758495236
 31
0.0
  0
LINE
  5
327
330
2
100
AcDbEntity
  8
AM_VIS
100
AcDbLine
 10
46.42842884574608
 20
717.6267758532937
 30
0.0
 11
46.42842884574608
 21
730.2458085316201
 31
0.0
  0
LINE
  5
328
330
2
100
AcDbEntity
  8
AM_HID
100
AcDbLine
 10
42.03942628224481
 20
717.6267758532937
 30
0.0
 11
42.15287556349167
 21
730.6267758495236
 31
0.0
  0
LINE
  5
329
330
2
100
AcDbEntity
  8
AM_HID
100
AcDbLine
 10
46.42842884574631
 20
720.5267758524527
 30
0.0
 11
39.82842884766049
 21
720.5267758524527
 31
0.0
  0
LINE
  5
32A
330
2
100
AcDbEntity
  8
AM_VIS
100
AcDbLine
 10
46.42842884574608
 20
717.6267758532937
 30
0.0
 11
38.92782884792135
 21
717.6267758532937
 31
0.0
  0
LINE
  5
32B
330
2
100
AcDbEntity
  8
1
100
AcDbLine
 10
48.92962168796316
 20
731.7267758532935
 30
0.0
 11
48.92962168796316
 21
732.6267758532934
 31
0.0
  0
LWPOLYLINE
  5
32C
330
2
100
AcDbEntity
  8
AM_VIS
100
AcDbPolyline
 90
        3
 70
     0
 43
0.0
 10
59.19230877650022
 20
698.7611050545141
 10
58.89369670004339
 20
697.660788399109
 10
58.5844106910431
 20
697.0647109963001
  0
ELLIPSE
  5
32D
330
2
100
AcDbEntity
  8
AM_VIS
100
AcDbEllipse
 10
58.58706544506219
 20
698.623319998024
 30
0.0
 11
-1.649997929244994
 21
0.0026137919161206
 31
0.0
210
0.0
220
0.0
230
1.0
 40
0.0903825181241554
 41
-3.124067626013027
 42
-1.94623576763433
  0
LWPOLYLINE
  5
32E
330
2
100
AcDbEntity
  8
AM_VIS
100
AcDbPolyline
 90
        4
 70
     0
 43
0.0
 10
58.39424177122919
 20
701.8427996316116
 10
58.83611766406545
 20
701.0974829378669
 10
59.11011546144834
 20
700.309844989255
 10
59.19230877650022
 20
698.7611050545141
  0
LINE
  5
32F
330
2
100
AcDbEntity
  8
AM_VIS
100
AcDbLine
 10
60.23681414159205
 20
698.623319998024
 30
0.0
 11
60.47842884167164
 21
698.8649346981036
 31
0.0
  0
LWPOLYLINE
  5
330
330
2
100
AcDbEntity
  8
AM_HID
100
AcDbPolyline
 90
        8
 70
     0
 43
0.0
 10
59.3177291740468
 20
696.064405507991
 10
59.31094701769018
 20
696.0986095885631
 10
59.29156106571156
 20
696.1276306094052
 10
59.26260874054389
 20
696.1469733099384
 10
59.22842884203408
 20
696.1537734412459
 10
59.19424894352426
 20
696.1469733099384
 10
59.16529661835659
 20
696.1276306094052
 10
59.15745672808577
 20
696.1186718778153
  0
LWPOLYLINE
  5
331
330
2
100
AcDbEntity
  8
AM_HID
100
AcDbPolyline
 90
        3
 70
     0
 43
0.0
 10
59.31497956072917
 20
692.2860126134483
 10
59.31632805852735
 20
694.1754604517361
 10
59.3177291740468
 20
696.064405507991
  0
LINE
  5
332
330
2
100
AcDbEntity
  8
AM_HID
100
AcDbLine
 10
59.06955033740735
 20
696.1858864560635
 30
0.0
 11
59.15745672808589
 21
696.1186718778153
 31
0.0
  0
ARC
  5
333
330
2
100
AcDbEntity
  8
AM_HID
100
AcDbCircle
 10
59.22842884203413
 20
696.0644055079918
 30
0.0
 40
0.1999999999420787
100
AcDbArc
 50
359.9999999997802
 51
142.5979155500366
  0
LINE
  5
334
330
2
100
AcDbEntity
  8
AM_HID
100
AcDbLine
 10
59.42842884197614
 20
696.0644055079913
 30
0.0
 11
59.3177291740468
 21
696.0644055079913
 31
0.0
  0
LINE
  5
335
330
2
100
AcDbEntity
  8
AM_VIS
100
AcDbLine
 10
54.24491107917379
 20
703.5002425160866
 30
0.0
 11
54.24491107917379
 21
704.629589274003
 31
0.0
  0
LWPOLYLINE
  5
336
330
2
100
AcDbEntity
  8
AM_VIS
100
AcDbPolyline
 90
        2
 70
     0
 43
0.0
 10
54.24491107917368
 20
703.5002425160866
 10
54.55558954883144
 20
703.5429340768883
  0
LINE
  5
337
330
2
100
AcDbEntity
  8
AM_VIS
100
AcDbLine
 10
54.47934267247308
 20
704.8640208673023
 30
0.0
 11
54.24491107917379
 21
704.629589274003
 31
0.0
  0
LWPOLYLINE
  5
338
330
2
100
AcDbEntity
  8
AM_VIS
100
AcDbPolyline
 90
        4
 70
     0
 43
0.0
 10
54.55558954883144
 20
703.5429340768883
 10
55.8102660128261
 20
703.4429749164019
 10
57.04106235993776
 20
702.9761457984919
 10
58.39424177122919
 20
701.8427996316116
  0
POLYLINE
  5
339
330
2
100
AcDbEntity
  8
AM_VIS
100
AcDb2dPolyline
 66
     1
 10
0.0
 20
0.0
 30
0.0
 70
     2
  0
VERTEX
  5
33A
330
339
100
AcDbEntity
  8
AM_VIS
100
AcDbVertex
100
AcDb2dVertex
 10
60.23681414159177
 20
698.623319998024
 30
0.0
 42
0.0243770673173289
  0
VERTEX
  5
33B
330
339
100
AcDbEntity
  8
AM_VIS
100
AcDbVertex
100
AcDb2dVertex
 10
60.20205397714375
 20
699.3528867805289
 30
0.0
 42
0.0403545225987182
 70
     1
  0
VERTEX
  5
33C
330
339
100
AcDbEntity
  8
AM_VIS
100
AcDbVertex
100
AcDb2dVertex
 10
60.12427827392895
 20
699.7876522646978
 30
0.0
 42
0.0181793965016761
  0
VERTEX
  5
33D
330
339
100
AcDbEntity
  8
AM_VIS
100
AcDbVertex
100
AcDb2dVertex
 10
59.86074301075729
 20
700.6579325780169
 30
0.0
 42
0.022710873473896
 70
     1
  0
VERTEX
  5
33E
330
339
100
AcDbEntity
  8
AM_VIS
100
AcDbVertex
100
AcDb2dVertex
 10
59.5935465784002
 20
701.3351344975358
 30
0.0
 42
0.0596860177096151
  0
VERTEX
  5
33F
330
339
100
AcDbEntity
  8
AM_VIS
100
AcDbVertex
100
AcDb2dVertex
 10
59.07641604487429
 20
702.1969552059991
 30
0.0
 42
0.0459414587788138
 70
     1
  0
VERTEX
  5
340
330
339
100
AcDbEntity
  8
AM_VIS
100
AcDbVertex
100
AcDb2dVertex
 10
58.18621747211949
 20
703.1496465373581
 30
0.0
 42
0.0653797532558244
  0
VERTEX
  5
341
330
339
100
AcDbEntity
  8
AM_VIS
100
AcDbVertex
100
AcDb2dVertex
 10
57.17166246606672
 20
703.8391385033219
 30
0.0
 42
0.0450073093689973
 70
     1
  0
VERTEX
  5
342
330
339
100
AcDbEntity
  8
AM_VIS
100
AcDbVertex
100
AcDb2dVertex
 10
55.51818264974286
 20
704.4926207755594
 30
0.0
 42
0.0448454818206493
  0
VERTEX
  5
343
330
339
100
AcDbEntity
  8
AM_VIS
100
AcDbVertex
100
AcDb2dVertex
 10
55.04702132534652
 20
704.5865568056695
 30
0.0
 42
0.0267875741236586
 70
     1
  0
VERTEX
  5
344
330
339
100
AcDbEntity
  8
AM_VIS
100
AcDbVertex
100
AcDb2dVertex
 10
54.24491107917373
 20
704.6295892740029
 30
0.0
  0
SEQEND
  5
345
330
339
100
AcDbEntity
  8
AM_VIS
  0
POLYLINE
  5
346
330
2
100
AcDbEntity
  8
AM_VIS
100
AcDb2dPolyline
 66
     1
 10
0.0
 20
0.0
 30
0.0
 70
     2
  0
VERTEX
  5
347
330
346
100
AcDbEntity
  8
AM_VIS
100
AcDbVertex
100
AcDb2dVertex
 10
60.47842884167159
 20
698.8649346981036
 30
0.0
 42
0.0984993638832307
  0
VERTEX
  5
348
330
346
100
AcDbEntity
  8
AM_VIS
100
AcDbVertex
100
AcDb2dVertex
 10
60.02187680120306
 20
701.1607443750019
 30
0.0
 42
0.0984993638832334
 70
     1
  0
VERTEX
  5
349
330
346
100
AcDbEntity
  8
AM_VIS
100
AcDbVertex
100
AcDb2dVertex
 10
58.72144800893505
 20
703.1070400345659
 30
0.0
 42
0.0984993638832368
  0
VERTEX
  5
34A
330
346
100
AcDbEntity
  8
AM_VIS
100
AcDbVertex
100
AcDb2dVertex
 10
56.77515234937136
 20
704.4074688268339
 30
0.0
 42
0.0984993638832338
 70
     1
  0
VERTEX
  5
34B
330
346
100
AcDbEntity
  8
AM_VIS
100
AcDbVertex
100
AcDb2dVertex
 10
54.47934267247302
 20
704.8640208673023
 30
0.0
  0
SEQEND
  5
34C
330
346
100
AcDbEntity
  8
AM_VIS
  0
ARC
  5
34D
330
2
100
AcDbEntity
  8
AM_VIS
100
AcDbCircle
 10
55.66872395634537
 20
730.1267758495234
 30
0.0
 40
0.5
100
AcDbArc
 50
0.5000000000002811
 51
90.0
  0
LINE
  5
34E
330
2
100
AcDbEntity
  8
AM_HID
100
AcDbLine
 10
54.77842884332469
 20
720.5267758524527
 30
0.0
 11
57.17842884262925
 21
720.5267758524527
 31
0.0
  0
LINE
  5
34F
330
2
100
AcDbEntity
  8
AM_VIS
100
AcDbLine
 10
57.17842884262879
 20
720.5267758524527
 30
0.0
 11
59.27842884201997
 21
720.5267758524527
 31
0.0
  0
LINE
  5
350
330
2
100
AcDbEntity
  8
AM_HID
100
AcDbLine
 10
59.16285708225311
 20
732.5612040891638
 30
0.0
 11
57.17842884262811
 21
730.5767758495383
 31
0.0
  0
LINE
  5
351
330
2
100
AcDbEntity
  8
AM_HID
100
AcDbLine
 10
57.17842884262811
 20
730.5767758495383
 30
0.0
 11
57.10948133618202
 21
726.6267758506836
 31
0.0
  0
LINE
  5
352
330
2
100
AcDbEntity
  8
AM_HID
100
AcDbLine
 10
56.57842884280288
 20
726.6267758506836
 30
0.0
 11
56.57842884280288
 21
726.1267758508287
 31
0.0
  0
LINE
  5
353
330
2
100
AcDbEntity
  8
AM_VIS
100
AcDbLine
 10
54.7784288433248
 20
717.6267758532937
 30
0.0
 11
56.27782884288987
 21
717.6267758532937
 31
0.0
  0
LINE
  5
354
330
2
100
AcDbEntity
  8
AM_VIS
100
AcDbLine
 10
57.12780915435186
 20
717.6267758532937
 30
0.0
 11
59.32904853029734
 21
717.6267758532937
 31
0.0
  0
LINE
  5
355
330
2
100
AcDbEntity
  8
AM_VIS
100
AcDbLine
 10
56.27782884288987
 20
717.6267758532937
 30
0.0
 11
57.12780915435164
 21
717.6267758532937
 31
0.0
  0
LINE
  5
356
330
2
100
AcDbEntity
  8
AM_VIS
100
AcDbLine
 10
56.16870491787746
 20
730.1311391172727
 30
0.0
 11
56.27782884288987
 21
717.6267758532937
 31
0.0
  0
LINE
  5
357
330
2
100
AcDbEntity
  8
AM_VIS
100
AcDbLine
 10
59.27842884201997
 20
720.5267758524527
 30
0.0
 11
59.32904853029711
 21
717.6267758532937
 31
0.0
  0
LINE
  5
358
330
2
100
AcDbEntity
  8
AM_VIS
100
AcDbLine
 10
57.12780915435164
 20
717.6267758532937
 30
0.0
 11
57.17842884262879
 21
720.5267758524527
 31
0.0
  0
LINE
  5
359
330
2
100
AcDbEntity
  8
AM_HID
100
AcDbLine
 10
54.23772797239351
 20
731.4688727502884
 30
0.0
 11
54.47934267247339
 21
717.6267758532937
 31
0.0
  0
LINE
  5
35A
330
2
100
AcDbEntity
  8
AM_HID
100
AcDbLine
 10
57.03006079078133
 20
726.1267758508287
 30
0.0
 11
57.17842884262879
 21
717.6267758532937
 31
0.0
  0
LINE
  5
35B
330
2
100
AcDbEntity
  8
AM_VIS
100
AcDbLine
 10
60.47842884167201
 20
717.6267758532937
 30
0.0
 11
60.24232851580963
 21
731.1529544629496
 31
0.0
  0
ARC
  5
35C
330
2
100
AcDbEntity
  8
AM_VIS
100
AcDbCircle
 10
58.74255697307503
 20
731.1267758532936
 30
0.0
 40
1.5
100
AcDbArc
 50
1.000000000000707
 51
90.00000000000005
  0
LINE
  5
35D
330
2
100
AcDbEntity
  8
AM_VIS
100
AcDbLine
 10
59.32904853029711
 20
717.6267758532937
 30
0.0
 11
60.47842884167201
 21
717.6267758532937
 31
0.0
  0
ENDSEC
  0
SECTION
  2
OBJECTS
  0
DICTIONARY
  5
8
330
0
100
AcDbDictionary
281
     1
  3
ACAD_COLOR
350
24
  3
ACAD_GROUP
350
20
  3
ACAD_LAYOUT
350
C
  3
ACAD_MATERIAL
350
23
  3
ACAD_MLINESTYLE
350
21
  3
ACAD_PLOTSETTINGS
350
22
  3
ACAD_PLOTSTYLENAME
350
7
  3
ACDBHEADERROUNDTRIPXREC
350
3D1
  3
AcDbVariableDictionary
350
3CC
  3
ACMDICTIONARY
350
36E
  3
AMG
350
35F
  3
DWGPROPS
350
3D0
  0
DICTIONARY
  5
3
330
2
100
AcDbDictionary
280
     1
281
     1
  0
DICTIONARY
  5
24
102
{ACAD_REACTORS
330
8
102
}
330
8
100
AcDbDictionary
281
     1
  0
DICTIONARY
  5
20
102
{ACAD_REACTORS
330
8
102
}
330
8
100
AcDbDictionary
281
     1
  0
DICTIONARY
  5
C
102
{ACAD_REACTORS
330
8
102
}
330
8
100
AcDbDictionary
281
     1
  3
Layout1
350
10
  3
Model
350
B
  0
DICTIONARY
  5
23
102
{ACAD_REACTORS
330
8
102
}
330
8
100
AcDbDictionary
281
     1
  0
DICTIONARY
  5
21
102
{ACAD_REACTORS
330
8
102
}
330
8
100
AcDbDictionary
281
     1
  3
STANDARD
350
26
  0
DICTIONARY
  5
22
102
{ACAD_REACTORS
330
8
102
}
330
8
100
AcDbDictionary
281
     1
  0
ACDBDICTIONARYWDFLT
  5
7
102
{ACAD_REACTORS
330
8
102
}
330
8
100
AcDbDictionary
281
     1
  3
Normal
350
6
100
AcDbDictionaryWithDefault
340
6
  0
DICTIONARY
  5
3D1
102
{ACAD_REACTORS
330
8
102
}
330
8
100
AcDbDictionary
281
     1
  0
DICTIONARY
  5
3CC
102
{ACAD_REACTORS
330
8
102
}
330
8
100
AcDbDictionary
281
     1
  3
DIMASSOC
350
3CE
  3
HIDETEXT
350
3CD
  3
PROJECTNAME
350
3CF
  0
DICTIONARY
  5
36E
102
{ACAD_REACTORS
330
8
102
}
330
8
100
AcDbDictionary
281
     1
  3
AcmStdDictionary
350
36F
  0
DICTIONARY
  5
35F
102
{ACAD_REACTORS
330
8
102
}
330
8
100
AcDbDictionary
281
     1
  3
AcMgSettings
350
369
  0
XRECORD
  5
3D0
102
{ACAD_REACTORS
330
8
102
}
330
8
100
AcDbXrecord
280
     1
  1
DWGPROPS COOKIE
  2

  3

  4

  6

  7

  8

  9

300
AmdtFileType=84
301
=
302
=
303
=
304
=
305
=
306
=
307
=
308
=
309
=
 40
9.041904675925925
 41
2451675.685234491
 42
2454697.584206632
  1

 90
        1
  0
LAYOUT
  5
10
102
{ACAD_XDICTIONARY
360
3D4
102
}
102
{ACAD_REACTORS
330
C
102
}
330
C
100
AcDbPlotSettings
  1

  2
HP DeskJet 870Cxi
  4

  6

 40
0.0
 41
0.0
 42
0.0
 43
0.0
 44
0.0
 45
0.0
 46
0.0
 47
0.0
 48
0.0
 49
0.0
140
0.0
141
0.0
142
1.0
143
1.0
 70
   688
 72
     0
 73
     0
 74
     5
  7
test2002.ctb
 75
    16
147
1.0
148
0.0
149
0.0
100
AcDbLayout
  1
Layout1
 70
     1
 71
     1
 10
0.0
 20
0.0
 11
420.0
 21
297.0
 12
0.0
 22
0.0
 32
0.0
 14
1.000000000000000E+20
 24
1.000000000000000E+20
 34
1.000000000000000E+20
 15
-1.000000000000000E+20
 25
-1.000000000000000E+20
 35
-1.000000000000000E+20
146
0.0
 13
0.0
 23
0.0
 33
0.0
 16
1.0
 26
0.0
 36
0.0
 17
0.0
 27
1.0
 37
0.0
 76
     0
330
D
  0
LAYOUT
  5
B
102
{ACAD_XDICTIONARY
360
3D2
102
}
102
{ACAD_REACTORS
330
C
102
}
330
C
100
AcDbPlotSettings
  1

  2
hp deskjet 990c series
  4
A5
  6

 40
4.011083126068115
 41
12.47774982452392
 42
3.926422119140625
 43
3.175003051757812
 44
147.997329711914
 45
209.9733276367187
 46
0.0
 47
0.0
 48
83.6322172811897
 49
578.4339195877073
140
271.5031252221315
141
858.0793491566446
142
1.0
143
1.439093260781524
 70
 11952
 72
     1
 73
     0
 74
     4
  7
test2002.ctb
 75
     0
147
0.6948819977497031
148
-83.6322172811897
149
-578.4339195877073
100
AcDbLayout
  1
Model
 70
     1
 71
     0
 10
0.0
 20
0.0
 11
12.0
 21
9.0
 12
0.0
 22
0.0
 32
0.0
 14
0.0
 24
0.0
 34
0.0
 15
0.0
 25
0.0
 35
0.0
146
0.0
 13
0.0
 23
0.0
 33
0.0
 16
1.0
 26
0.0
 36
0.0
 17
0.0
 27
1.0
 37
0.0
 76
     0
330
2
  0
MLINESTYLE
  5
26
102
{ACAD_REACTORS
330
21
102
}
330
21
100
AcDbMlineStyle
  2
STANDARD
 70
     0
  3

 62
   256
 51
90.0
 52
90.0
 71
     2
 49
0.5
 62
   256
  6
BYLAYER
 49
-0.5
 62
   256
  6
BYLAYER
  0
ACDBPLACEHOLDER
  5
6
102
{ACAD_REACTORS
330
7
102
}
330
7
  0
DICTIONARYVAR
  5
3CE
102
{ACAD_REACTORS
330
3CC
102
}
330
3CC
100
DictionaryVariables
280
     0
  1
1
  0
DICTIONARYVAR
  5
3CD
102
{ACAD_REACTORS
330
3CC
102
}
330
3CC
100
DictionaryVariables
280
     0
  1
1
  0
DICTIONARYVAR
  5
3CF
102
{ACAD_REACTORS
330
3CC
102
}
330
3CC
100
DictionaryVariables
280
     0
  1

  0
DICTIONARY
  5
36F
102
{ACAD_REACTORS
330
36E
102
}
330
36E
100
AcDbDictionary
281
     1
  0
DICTIONARY
  5
369
102
{ACAD_REACTORS
330
35F
102
}
330
35F
100
AcDbDictionary
281
     1
  3
DWGSETTINGS
350
368
  3
TRANSSETTINGS
350
36A
  0
DICTIONARY
  5
3D4
330
10
100
AcDbDictionary
280
     1
281
     1
  3
ACAD_XREC_ROUNDTRIP
360
3D5
  0
DICTIONARY
  5
3D2
330
B
100
AcDbDictionary
280
     1
281
     1
  3
ACAD_XREC_ROUNDTRIP
360
3D3
  0
XRECORD
  5
3D5
102
{ACAD_REACTORS
330
3D4
102
}
330
3D4
100
AcDbXrecord
280
     1
102
SHADEPLOT
 70
     0
102
SHADEPLOTRESLEVEL
 70
     2
102
SHADEPLOTCUSTOMDPI
 70
   300
  0
XRECORD
  5
3D3
102
{ACAD_REACTORS
330
3D2
102
}
330
3D2
100
AcDbXrecord
280
     1
102
SHADEPLOT
 70
     0
102
SHADEPLOTRESLEVEL
 70
     2
102
SHADEPLOTCUSTOMDPI
 70
   300
  0
ENDSEC
  0
EOF
