  0
SECTION
  2
HEADER
  9
$ACADVER
  1
AC1015
  9
$ACADMAINTVER
 70
    20
  9
$DWGCODEPAGE
  3
ANSI_1252
  9
$INSBASE
 10
0.0
 20
0.0
 30
0.0
  9
$EXTMIN
 10
-699.5057924527445
 20
-15.0
 30
-0.0000000000000063
  9
$EXTMAX
 10
1775.815882541849
 20
1177.376234389063
 30
0.0000000000000062
  9
$LIMMIN
 10
0.0
 20
0.0
  9
$LIMMAX
 10
420.0
 20
297.0
  9
$ORTHOMODE
 70
     1
  9
$REGENMODE
 70
     1
  9
$FILLMODE
 70
     1
  9
$QTEXTMODE
 70
     0
  9
$MIRRTEXT
 70
     1
  9
$LTSCALE
 40
3.0
  9
$ATTMODE
 70
     1
  9
$TEXTSIZE
 40
5.0
  9
$TRACEWID
 40
1.0
  9
$TEXTSTYLE
  7
Standard
  9
$CLAYER
  8
4
  9
$CELTYPE
  6
ByLayer
  9
$CECOLOR
 62
   256
  9
$CELTSCALE
 40
1.0
  9
$DISPSILH
 70
     0
  9
$DIMSCALE
 40
1.0
  9
$DIMASZ
 40
2.5
  9
$DIMEXO
 40
0.5
  9
$DIMDLI
 40
0.5
  9
$DIMRND
 40
0.0
  9
$DIMDLE
 40
0.0
  9
$DIMEXE
 40
0.5
  9
$DIMTP
 40
0.0
  9
$DIMTM
 40
0.0
  9
$DIMTXT
 40
3.2
  9
$DIMCEN
 40
0.0
  9
$DIMTSZ
 40
0.0
  9
$DIMTOL
 70
     0
  9
$DIMLIM
 70
     0
  9
$DIMTIH
 70
     0
  9
$DIMTOH
 70
     0
  9
$DIMSE1
 70
     0
  9
$DIMSE2
 70
     0
  9
$DIMTAD
 70
     1
  9
$DIMZIN
 70
     8
  9
$DIMBLK
  1

  9
$DIMASO
 70
     1
  9
$DIMSHO
 70
     1
  9
$DIMPOST
  1

  9
$DIMAPOST
  1

  9
$DIMALT
 70
     0
  9
$DIMALTD
 70
     3
  9
$DIMALTF
 40
0.03937007874016
  9
$DIMLFAC
 40
1.0
  9
$DIMTOFL
 70
     1
  9
$DIMTVP
 40
0.0
  9
$DIMTIX
 70
     0
  9
$DIMSOXD
 70
     0
  9
$DIMSAH
 70
     0
  9
$DIMBLK1
  1

  9
$DIMBLK2
  1

  9
$DIMSTYLE
  2
ISO-25
  9
$DIMCLRD
 70
   256
  9
$DIMCLRE
 70
   256
  9
$DIMCLRT
 70
   256
  9
$DIMTFAC
 40
1.0
  9
$DIMGAP
 40
0.5
  9
$DIMJUST
 70
     0
  9
$DIMSD1
 70
     0
  9
$DIMSD2
 70
     0
  9
$DIMTOLJ
 70
     0
  9
$DIMTZIN
 70
     8
  9
$DIMALTZ
 70
     0
  9
$DIMALTTZ
 70
     0
  9
$DIMUPT
 70
     1
  9
$DIMDEC
 70
     2
  9
$DIMTDEC
 70
     2
  9
$DIMALTU
 70
     2
  9
$DIMALTTD
 70
     3
  9
$DIMTXSTY
  7
Standard
  9
$DIMAUNIT
 70
     0
  9
$DIMADEC
 70
     2
  9
$DIMALTRND
 40
0.0
  9
$DIMAZIN
 70
     2
  9
$DIMDSEP
 70
    44
  9
$DIMATFIT
 70
     3
  9
$DIMFRAC
 70
     0
  9
$DIMLDRBLK
  1

  9
$DIMLUNIT
 70
     2
  9
$DIMLWD
 70
    -1
  9
$DIMLWE
 70
    -1
  9
$DIMTMOVE
 70
     0
  9
$LUNITS
 70
     2
  9
$LUPREC
 70
     4
  9
$SKETCHINC
 40
1.0
  9
$FILLETRAD
 40
0.5
  9
$AUNITS
 70
     0
  9
$AUPREC
 70
     4
  9
$MENU
  1
.
  9
$ELEVATION
 40
0.0
  9
$PELEVATION
 40
0.0
  9
$THICKNESS
 40
0.0
  9
$LIMCHECK
 70
     0
  9
$CHAMFERA
 40
10.0
  9
$CHAMFERB
 40
10.0
  9
$CHAMFERC
 40
20.0
  9
$CHAMFERD
 40
0.0
  9
$SKPOLY
 70
     0
  9
$TDCREATE
 40
2452788.441764213
  9
$TDUCREATE
 40
2452788.358430880
  9
$TDUPDATE
 40
2454202.526367002
  9
$TDUUPDATE
 40
2454202.443033669
  9
$TDINDWG
 40
1.9291577546
  9
$TDUSRTIMER
 40
1.9291577546
  9
$USRTIMER
 70
     1
  9
$ANGBASE
 50
0.0
  9
$ANGDIR
 70
     0
  9
$PDMODE
 70
     0
  9
$PDSIZE
 40
0.0
  9
$PLINEWID
 40
0.0
  9
$SPLFRAME
 70
     0
  9
$SPLINETYPE
 70
     6
  9
$SPLINESEGS
 70
     8
  9
$HANDSEED
  5
28C
  9
$SURFTAB1
 70
     6
  9
$SURFTAB2
 70
     6
  9
$SURFTYPE
 70
     6
  9
$SURFU
 70
     6
  9
$SURFV
 70
     6
  9
$UCSBASE
  2

  9
$UCSNAME
  2

  9
$UCSORG
 10
0.0
 20
0.0
 30
0.0
  9
$UCSXDIR
 10
1.0
 20
0.0
 30
0.0
  9
$UCSYDIR
 10
0.0
 20
1.0
 30
0.0
  9
$UCSORTHOREF
  2

  9
$UCSORTHOVIEW
 70
     0
  9
$UCSORGTOP
 10
0.0
 20
0.0
 30
0.0
  9
$UCSORGBOTTOM
 10
0.0
 20
0.0
 30
0.0
  9
$UCSORGLEFT
 10
0.0
 20
0.0
 30
0.0
  9
$UCSORGRIGHT
 10
0.0
 20
0.0
 30
0.0
  9
$UCSORGFRONT
 10
0.0
 20
0.0
 30
0.0
  9
$UCSORGBACK
 10
0.0
 20
0.0
 30
0.0
  9
$PUCSBASE
  2

  9
$PUCSNAME
  2

  9
$PUCSORG
 10
0.0
 20
0.0
 30
0.0
  9
$PUCSXDIR
 10
1.0
 20
0.0
 30
0.0
  9
$PUCSYDIR
 10
0.0
 20
1.0
 30
0.0
  9
$PUCSORTHOREF
  2

  9
$PUCSORTHOVIEW
 70
     0
  9
$PUCSORGTOP
 10
0.0
 20
0.0
 30
0.0
  9
$PUCSORGBOTTOM
 10
0.0
 20
0.0
 30
0.0
  9
$PUCSORGLEFT
 10
0.0
 20
0.0
 30
0.0
  9
$PUCSORGRIGHT
 10
0.0
 20
0.0
 30
0.0
  9
$PUCSORGFRONT
 10
0.0
 20
0.0
 30
0.0
  9
$PUCSORGBACK
 10
0.0
 20
0.0
 30
0.0
  9
$USERI1
 70
     0
  9
$USERI2
 70
     0
  9
$USERI3
 70
     0
  9
$USERI4
 70
     0
  9
$USERI5
 70
     0
  9
$USERR1
 40
0.0
  9
$USERR2
 40
0.0
  9
$USERR3
 40
0.0
  9
$USERR4
 40
0.0
  9
$USERR5
 40
0.0
  9
$WORLDVIEW
 70
     1
  9
$SHADEDGE
 70
     3
  9
$SHADEDIF
 70
    70
  9
$TILEMODE
 70
     1
  9
$MAXACTVP
 70
    64
  9
$PINSBASE
 10
0.0
 20
0.0
 30
0.0
  9
$PLIMCHECK
 70
     0
  9
$PEXTMIN
 10
0.0
 20
0.0
 30
0.0
  9
$PEXTMAX
 10
0.0
 20
0.0
 30
0.0
  9
$PLIMMIN
 10
0.0
 20
0.0
  9
$PLIMMAX
 10
12.0
 20
9.0
  9
$UNITMODE
 70
     0
  9
$VISRETAIN
 70
     1
  9
$PLINEGEN
 70
     0
  9
$PSLTSCALE
 70
     1
  9
$TREEDEPTH
 70
  3020
  9
$CMLSTYLE
  2
Standard
  9
$CMLJUST
 70
     0
  9
$CMLSCALE
 40
20.0
  9
$PROXYGRAPHICS
 70
     1
  9
$MEASUREMENT
 70
     1
  9
$CELWEIGHT
370
    -1
  9
$ENDCAPS
280
     0
  9
$JOINSTYLE
280
     0
  9
$LWDISPLAY
290
     0
  9
$INSUNITS
 70
     4
  9
$HYPERLINKBASE
  1

  9
$STYLESHEET
  1

  9
$XEDIT
290
     1
  9
$CEPSNTYPE
380
     0
  9
$PSTYLEMODE
290
     1
  9
$FINGERPRINTGUID
  2
{D5EF1FAA-911D-4B95-BCB1-713B537AE9B8}
  9
$VERSIONGUID
  2
{BBCD7187-77D2-4DA4-85B1-F4F3275953E8}
  9
$EXTNAMES
290
     1
  9
$PSVPSCALE
 40
0.0
  9
$OLESTARTUP
290
     0
  0
ENDSEC
  0
SECTION
  2
CLASSES
  0
CLASS
  1
ACDBDICTIONARYWDFLT
  2
AcDbDictionaryWithDefault
  3
ObjectDBX Classes
 90
        0
280
     0
281
     0
  0
CLASS
  1
ACDBPLACEHOLDER
  2
AcDbPlaceHolder
  3
ObjectDBX Classes
 90
        0
280
     0
281
     0
  0
CLASS
  1
LAYOUT
  2
AcDbLayout
  3
ObjectDBX Classes
 90
        0
280
     0
281
     0
  0
CLASS
  1
DICTIONARYVAR
  2
AcDbDictionaryVar
  3
ObjectDBX Classes
 90
        0
280
     0
281
     0
  0
CLASS
  1
ACME_DOCUMENT
  2
AcMeDbDoc
  3
AcMeServices
 90
    32768
280
     0
281
     0
  0
CLASS
  1
AMGSETTINGSOBJ
  2
AmgSettingsObj
  3
"AcadM|Product Description: AutoCAD Mechanical 2000|Company: Autodesk"
 90
        0
280
     0
281
     0
  0
CLASS
  1
ACMESCOPE
  2
AcMeScope
  3
AcMeServices
 90
        0
280
     0
281
     0
  0
CLASS
  1
ACMECOMMANDHISTORY
  2
AcMeCommandHistory
  3
AcMeServices
 90
    32768
280
     0
281
     0
  0
CLASS
  1
ACIMSYSVARMAN
  2
AcImSysVarManager
  3
AcMeServices
 90
        0
280
     0
281
     0
  0
CLASS
  1
ACIMREALSYSVAR
  2
AcImRealSysVar
  3
AcMeServices
 90
        0
280
     0
281
     0
  0
CLASS
  1
ACIMINTSYSVAR
  2
AcImIntSysVar
  3
AcMeServices
 90
        0
280
     0
281
     0
  0
CLASS
  1
ACMEDRAWINGMAN
  2
AcMeDrawingMan
  3
AcMeServices
 90
    32768
280
     0
281
     0
  0
CLASS
  1
ACMEVIEW
  2
AcMeView
  3
AcMeServices
 90
    32768
280
     0
281
     0
  0
CLASS
  1
ACDBENTITYCACHE
  2
AcMeEntityCache
  3
AcMeServices
 90
    32768
280
     0
281
     0
  0
CLASS
  1
GSMANAGER
  2
AcMeGSManager
  3
AcMeServices
 90
    32768
280
     0
281
     0
  0
CLASS
  1
AMDTINTERNALREACTOR
  2
AmdtInternalReactor
  3
AcMeServices
 90
        0
280
     0
281
     0
  0
CLASS
  1
ACMESTATEMGR
  2
AcMeStateMgr
  3
AcMeServices
 90
        0
280
     0
281
     0
  0
CLASS
  1
ACGREFMASTER
  2
AcGrefMaster
  3
AcAttribServices
 90
        0
280
     0
281
     0
  0
CLASS
  1
AM_DRAWING_MGR
  2
AcDmDwgMgr
  3
AcMechDwgViewMgmt
 90
        0
280
     0
281
     0
  0
CLASS
  1
AM_DWG_DOCUMENT
  2
AcDmDwgDocument
  3
AcMechDwgViewMgmt
 90
        0
280
     0
281
     0
  0
CLASS
  1
AM_DWG_SHEET
  2
AcDmSheet
  3
AcMechDwgViewMgmt
 90
        0
280
     0
281
     0
  0
CLASS
  1
AM_VIEWDIMPARMAP
  2
AcDmViewDimParMap
  3
AcMechDwgViewMgmt
 90
        0
280
     0
281
     0
  0
CLASS
  1
AM_DWGMGR_NAME
  2
AcDmDwgMgrName
  3
AcMechDwgViewMgmt
 90
        0
280
     0
281
     0
  0
CLASS
  1
ACME_DATABASE
  2
AcMeDbDatabase
  3
AcMeServices
 90
    32768
280
     0
281
     0
  0
CLASS
  1
ACRFINSADJUSTERMGR
  2
AcRfInsAdjusterMgr
  3
AcMeServices
 90
    32768
280
     0
281
     0
  0
CLASS
  1
ACGREFACADMASTER
  2
AcGrefacadMaster
  3
AcGrefServices
 90
    32768
280
     0
281
     0
  0
CLASS
  1
AMDTMENUSTATEMGR
  2
AmdtMenuStateMgr
  3
McadcomServices
 90
    32768
280
     0
281
     0
  0
CLASS
  1
AMDTMCOMMENUSTATE
  2
AmdtMcomMenuState
  3
McadcomServices
 90
    32768
280
     0
281
     0
  0
CLASS
  1
AMIMASTER
  2
AmiMaster
  3
AmiServices
 90
    32768
280
     0
281
     0
  0
CLASS
  1
ASAPP
  2
AcAsAppObject
  3
AutoSurfServices
 90
    32768
280
     0
281
     0
  0
CLASS
  1
IM_STATIC_MAN
  2
AcImStaticVarManager
  3
AcMeServices
 90
    32768
280
     0
281
     0
  0
CLASS
  1
ACIMSTRSYSVAR
  2
AcImStrSysVar
  3
AcMeServices
 90
        0
280
     0
281
     0
  0
CLASS
  1
ACIMDBLSTATICVAR
  2
AcImDblStaticVar
  3
AcMeServices
 90
    32768
280
     0
281
     0
  0
CLASS
  1
ACIMSTRSTATICVAR
  2
AcImStrStaticVar
  3
AcMeServices
 90
    32768
280
     0
281
     0
  0
CLASS
  1
ACIMINTSTATICVAR
  2
AcImIntStaticVar
  3
AcMeServices
 90
    32768
280
     0
281
     0
  0
CLASS
  1
ACASGREFMASTER
  2
AcAsGrefMaster
  3
AutoSurfResolverServices
 90
    32768
280
     0
281
     0
  0
CLASS
  1
ACADGREFMODULE
  2
AcAdGrefModule
  3
AdGrefServices
 90
    32768
280
     0
281
     0
  0
CLASS
  1
AMDTMAPISURFMOUDULE
  2
AmdtMApiSurfModule
  3
MApiSurfServices
 90
    32768
280
     0
281
     0
  0
CLASS
  1
MAPIAMMOUDLE
  2
MApiAmModule
  3
MApiAmServices
 90
    32768
280
     0
281
     0
  0
CLASS
  1
AMDTADMENUSTATE
  2
AmdtAdMenuState
  3
DesignerServices
 90
    32768
280
     0
281
     0
  0
CLASS
  1
ADAPPL
  2
AcAdAppl
  3
DesignerServices
 90
        0
280
     0
281
     0
  0
CLASS
  1
DEPMGR
  2
AcAdDepMgr
  3
DesignerServices
 90
        0
280
     0
281
     0
  0
CLASS
  1
PARAMMGR
  2
AcAdParamMgr
  3
DesignerServices
 90
        0
280
     0
281
     0
  0
CLASS
  1
PARAMSCOPE
  2
AcAdParamScope
  3
DesignerServices
 90
        0
280
     0
281
     0
  0
CLASS
  1
NAMEDAPPL
  2
AcAdNamedAppl
  3
DesignerServices
 90
        0
280
     0
281
     0
  0
CLASS
  1
AMDTDMMENUSTATE
  2
AmdtDmMenuState
  3
AcMechDwgViewMgmt
 90
    32768
280
     0
281
     0
  0
CLASS
  1
MAPIADMODULE
  2
MApiAdModule
  3
MApiAdServices
 90
    32768
280
     0
281
     0
  0
CLASS
  1
AMDTAMMENUSTATE
  2
AmdtAmMenuState
  3
DesignerAssemblies
 90
    32768
280
     0
281
     0
  0
CLASS
  1
ACAMPROJECT
  2
AcAmProject
  3
DesignerAssemblies
 90
    32768
280
     0
281
     0
  0
CLASS
  1
ACAMGRCOMPDEF
  2
AcAmGrCompDef
  3
DesignerAssemblies
 90
    32768
280
     0
281
     0
  0
CLASS
  1
ACCMCONTEXT
  2
AcCmContext
  3
DesignerAssemblies
 90
    32768
280
     0
281
     0
  0
CLASS
  1
ACAMCOMPDEF
  2
AcAmCompDef
  3
DesignerAssemblies
 90
    32768
280
     0
281
     0
  0
CLASS
  1
ACAMCOMPDEFMGR
  2
AcAmCompDefMgr
  3
DesignerAssemblies
 90
    32768
280
     0
281
     0
  0
CLASS
  1
AMCONTEXTMGR
  2
AcAmContextMgr
  3
DesignerAssemblies
 90
    32768
280
     0
281
     0
  0
CLASS
  1
ACAMCONTEXTMODELER
  2
AcAmContextModeler
  3
DesignerAssemblies
 90
    32768
280
     0
281
     0
  0
CLASS
  1
ACMDATADICTIONARY
  2
AcmDataDictionary
  3
"AcmSymBB|Product Description: AutoCAD Mechanical 2004 DX|Company: Autodesk"
 90
    32768
280
     0
281
     0
  0
CLASS
  1
CATALOGSTATE
  2
AcAmCatalogState
  3
DesignerAssemblies
 90
    32768
280
     0
281
     0
  0
CLASS
  1
ACAMGRCOMPDEFSET
  2
AcAmGrCompDefSet
  3
DesignerAssemblies
 90
    32768
280
     0
281
     0
  0
CLASS
  1
AMDTBROWSERDBTAB
  2
AmdtBrowserDbTab
  3
McadcomServices
 90
    32768
280
     0
281
     0
  0
CLASS
  1
CBROWSERAPPOBJECT
  2
CBrowserAppObject
  3
McadcomServices
 90
    32768
280
     0
281
     0
  0
CLASS
  1
DM_PLACEHOLDER
  2
AcDmSelsetPlaceholder
  3
AcMechDwgViewMgmt
 90
    32768
280
     0
281
     0
  0
CLASS
  1
ACMSTANDARDISO
  2
AcmStandardISO
  3
"Amdt_StdImp|Product Description: AutoCAD Mechanical 2004 DX|Company: Autodesk"
 90
        0
280
     0
281
     0
  0
CLASS
  1
AMGOBJPROPCFG
  2
AmgObjPropCfg
  3
"AmgLay|Product Description: AutoCAD Mechanical 2000|Company: Autodesk"
 90
        1
280
     0
281
     0
  0
CLASS
  1
AMDTEDGESTANDARDISO
  2
AmdtEdgeStdISO
  3
"Amdt_StdImp|Product Description: AutoCAD Mechanical 2004 DX|Company: Autodesk"
 90
        0
280
     0
281
     0
  0
CLASS
  1
ACMSURFSTANDARDISO
  2
AcmSurfTextStdISO
  3
"Amdt_StdImp|Product Description: AutoCAD Mechanical 2004 DX|Company: Autodesk"
 90
        0
280
     0
281
     0
  0
CLASS
  1
ACMFCFSTANDARDISO
  2
AcmFCFStdISO
  3
"Amdt_StdImp|Product Description: AutoCAD Mechanical 2004 DX|Company: Autodesk"
 90
        0
280
     0
281
     0
  0
CLASS
  1
ACMWELDSTANDARDISO
  2
AcmWeldingStdISO
  3
"Amdt_StdImp|Product Description: AutoCAD Mechanical 2004 DX|Company: Autodesk"
 90
        0
280
     0
281
     0
  0
CLASS
  1
ACMIDSTANDARDISO
  2
AcmIdStdISO
  3
"Amdt_StdImp|Product Description: AutoCAD Mechanical 2004 DX|Company: Autodesk"
 90
        0
280
     0
281
     0
  0
CLASS
  1
ACMDATUMSTANDARDISO
  2
AcmDatumStdISO
  3
"Amdt_StdImp|Product Description: AutoCAD Mechanical 2004 DX|Company: Autodesk"
 90
        0
280
     0
281
     0
  0
CLASS
  1
ACMBOMSTANDARDISO
  2
AcmBOMStdISO
  3
"Amdt_StdImp|Product Description: AutoCAD Mechanical 2004 DX|Company: Autodesk"
 90
        0
280
     0
281
     0
  0
CLASS
  1
ACMDETAILSTANDARDISO
  2
AmdtDetailSymStdISO
  3
"Amdt_StdImp|Product Description: AutoCAD Mechanical 2004 DX|Company: Autodesk"
 90
        0
280
     0
281
     0
  0
CLASS
  1
ACMSECTIONSTANDARDISO
  2
AmdtSectionSymStdISO
  3
"Amdt_StdImp|Product Description: AutoCAD Mechanical 2004 DX|Company: Autodesk"
 90
        0
280
     0
281
     0
  0
CLASS
  1
ACMCENTERLINESTANDARDISO
  2
AmdtCenterLineStdISO
  3
"Amdt_StdImp|Product Description: AutoCAD Mechanical 2004 DX|Company: Autodesk"
 90
        0
280
     0
281
     0
  0
CLASS
  1
ACMTHREADLINESTANDARDISO
  2
AmdtThreadLineStdISO
  3
"Amdt_StdImp|Product Description: AutoCAD Mechanical 2004 DX|Company: Autodesk"
 90
        0
280
     0
281
     0
  0
CLASS
  1
ACMNOTESTANDARDISO
  2
AmdtNoteStdISO
  3
"Amdt_StdImp|Product Description: AutoCAD Mechanical 2004 DX|Company: Autodesk"
 90
        0
280
     0
281
     0
  0
CLASS
  1
AMDTNOTETEMPLATEDB
  2
AmdtNoteTemplateDB
  3
AMDT_STDIMP_MODULE_NAME
 90
        0
280
     0
281
     0
  0
CLASS
  1
ACAMGLAYSTD
  2
AcAmgLayStd
  3
"AcAmgLayStd|Product Description: AutoCAD Mechanical 2000|Company: Autodesk"
 90
        0
280
     0
281
     0
  0
CLASS
  1
ACAMGDIMSTD
  2
AcAmgDimStd
  3
"AcAmgDimStd|Product Description: AutoCAD Mechanical 2000|Company: Autodesk"
 90
        0
280
     0
281
     0
  0
CLASS
  1
ACAMGHOLECHARTSTDISO
  2
AcAmgHoleChartStdISO
  3
ACMSYMBB_MODULE_NAME
 90
        0
280
     0
281
     0
  0
CLASS
  1
ACAMGTITLESTD
  2
AcAmgTitleStd
  3
"TITLEAPP"
 90
        0
280
     0
281
     0
  0
CLASS
  1
LAYER_INDEX
  2
AcDbLayerIndex
  3
ObjectDBX Classes
 90
    32768
280
     0
281
     0
  0
CLASS
  1
IDBUFFER
  2
AcDbIdBuffer
  3
ObjectDBX Classes
 90
    32768
280
     0
281
     0
  0
CLASS
  1
ACAMGFILTERDAT
  2
AcAmgFilterDat
  3
"AcadM|Product Description: AutoCAD Mechanical 2000|Company: Autodesk"
 90
    32768
280
     0
281
     0
  0
ENDSEC
  0
SECTION
  2
TABLES
  0
TABLE
  2
VPORT
  5
1A
330
0
100
AcDbSymbolTable
 70
     1
  0
VPORT
  5
1B
330
1A
100
AcDbSymbolTableRecord
100
AcDbViewportTableRecord
  2
*Active
 70
     0
 10
0.0
 20
0.0
 11
1.0
 21
1.0
 12
-1496.722580492902
 22
-224.1430815259011
 13
0.0
 23
0.0
 14
10.0
 24
10.0
 15
10.0
 25
10.0
 16
0.0
 26
0.0
 36
1.0
 17
1062.372051474254
 27
485.6272263813893
 37
0.0
 40
549.6000992892983
 41
1.733570159857904
 42
50.0
 43
0.0
 44
0.0
 50
0.0
 51
0.0
 71
     0
 72
 15000
 73
     1
 74
     3
 75
     0
 76
     0
 77
     0
 78
     0
281
     0
 65
     0
110
0.0
120
0.0
130
0.0
111
1.0
121
0.0
131
0.0
112
0.0
122
1.0
132
0.0
 79
     0
146
0.0
  0
ENDTAB
  0
TABLE
  2
LTYPE
  5
15
330
0
100
AcDbSymbolTable
 70
    14
  0
LTYPE
  5
16
330
15
100
AcDbSymbolTableRecord
100
AcDbLinetypeTableRecord
  2
ByBlock
 70
     0
  3

 72
    65
 73
     0
 40
0.0
  0
LTYPE
  5
17
330
15
100
AcDbSymbolTableRecord
100
AcDbLinetypeTableRecord
  2
ByLayer
 70
     0
  3

 72
    65
 73
     0
 40
0.0
  0
LTYPE
  5
9
330
15
100
AcDbSymbolTableRecord
100
AcDbLinetypeTableRecord
  2
Continuous
 70
     0
  3
Solid line
 72
    65
 73
     0
 40
0.0
  0
LTYPE
  5
233
330
15
100
AcDbSymbolTableRecord
100
AcDbLinetypeTableRecord
  2
CENTER
 70
     0
  3
____ _ ____ _ ____ _ ____ _ ____ _ ____ _ ____ 
 72
    65
 73
     4
 40
2.0
 49
1.25
 74
     0
 49
-0.25
 74
     0
 49
0.25
 74
     0
 49
-0.25
 74
     0
  0
LTYPE
  5
2A
330
15
100
AcDbSymbolTableRecord
100
AcDbLinetypeTableRecord
  2
AM_ISO02W050
 70
     0
  3
__ __ __ __ __ __ __ __ __ __ __ __ __ __ __
 72
    65
 73
     2
 40
7.5
 49
6.0
 74
     0
 49
-1.5
 74
     0
  0
LTYPE
  5
215
330
15
100
AcDbSymbolTableRecord
100
AcDbLinetypeTableRecord
  2
AM_ISO08W050
 70
     0
  3
____ . ____ . ____ . ____ . ____ . ____ . ____
 72
    65
 73
     4
 40
18.0
 49
12.0
 74
     0
 49
-1.5
 74
     0
 49
3.0
 74
     0
 49
-1.5
 74
     0
  0
LTYPE
  5
216
330
15
100
AcDbSymbolTableRecord
100
AcDbLinetypeTableRecord
  2
AM_ISO09W050
 70
     0
  3
_____ . . _____ . . _____ . . ____ .. ____
 72
    65
 73
     6
 40
22.5
 49
12.0
 74
     0
 49
-1.5
 74
     0
 49
3.0
 74
     0
 49
-1.5
 74
     0
 49
3.0
 74
     0
 49
-1.5
 74
     0
  0
LTYPE
  5
217
330
15
100
AcDbSymbolTableRecord
100
AcDbLinetypeTableRecord
  2
Amconstr
 70
     0
  3
_______________________
 72
    65
 73
     2
 40
9999.0
 49
9999.0
 74
     0
 49
0.0
 74
     0
  0
LTYPE
  5
218
330
15
100
AcDbSymbolTableRecord
100
AcDbLinetypeTableRecord
  2
AM_ISO08W050x2
 70
     0
  3
__ . __ . __ . __ . __ . __
 72
    65
 73
     4
 40
9.0
 49
6.0
 74
     0
 49
-0.75
 74
     0
 49
1.5
 74
     0
 49
-0.75
 74
     0
  0
LTYPE
  5
219
330
15
100
AcDbSymbolTableRecord
100
AcDbLinetypeTableRecord
  2
AM_ISO02W050x2
 70
     0
  3
 _ _ _ _ _ _ _ _ _ _ _ _
 72
    65
 73
     2
 40
3.75
 49
3.0
 74
     0
 49
-0.75
 74
     0
  0
LTYPE
  5
21A
330
15
100
AcDbSymbolTableRecord
100
AcDbLinetypeTableRecord
  2
Amzigzag
 70
     0
  3
/\/-/\/-/\/-/\/-/\/-/\/
 72
    65
 73
     2
 40
11.0001
 49
0.0001
 74
     4
 75
   135
340
21B
 46
0.04
 50
0.0
 44
0.0
 45
0.0
 49
-11.0
 74
     0
  0
LTYPE
  5
22B
330
15
100
AcDbSymbolTableRecord
100
AcDbLinetypeTableRecord
  2
ACISOWELD
 70
     0
  3
_ _ _ _ _
 72
    65
 73
     2
 40
2.0
 49
2.0
 74
     0
 49
-1.0
 74
     0
  0
LTYPE
  5
22E
330
15
100
AcDbSymbolTableRecord
100
AcDbLinetypeTableRecord
  2
ACISOTGB
 70
     0
  3
__ . . __ . .
 72
    65
 73
     6
 40
9.0
 49
4.0
 74
     0
 49
-1.0
 74
     0
 49
1.0
 74
     0
 49
-1.0
 74
     0
 49
1.0
 74
     0
 49
-1.0
 74
     0
  0
LTYPE
  5
22F
330
15
100
AcDbSymbolTableRecord
100
AcDbLinetypeTableRecord
  2
ACISOTGL
 70
     0
  3
_ _ _ _ _
 72
    65
 73
     2
 40
3.0
 49
2.0
 74
     0
 49
-1.0
 74
     0
  0
LTYPE
  5
27D
330
15
100
AcDbSymbolTableRecord
100
AcDbLinetypeTableRecord
  2
HIDDEN
 70
     0
  3
Hidden __ __ __ __ __ __ __ __ __ __ __ __ __ _
 72
    65
 73
     2
 40
9.524999999999998
 49
6.349999999999999
 74
     0
 49
-3.174999999999999
 74
     0
  0
LTYPE
  5
27E
330
15
100
AcDbSymbolTableRecord
100
AcDbLinetypeTableRecord
  2
PHANTOM2
 70
     0
  3
Phantom (.5x) ___ _ _ ___ _ _ ___ _ _ ___ _ _
 72
    65
 73
     6
 40
31.75
 49
15.875
 74
     0
 49
-3.174999999999999
 74
     0
 49
3.174999999999999
 74
     0
 49
-3.174999999999999
 74
     0
 49
3.174999999999999
 74
     0
 49
-3.174999999999999
 74
     0
  0
ENDTAB
  0
TABLE
  2
LAYER
  5
11
330
0
100
AcDbSymbolTable
 70
     4
  0
LAYER
  5
5
330
11
100
AcDbSymbolTableRecord
100
AcDbLayerTableRecord
  2
0
 70
     0
 62
     7
  6
Continuous
370
    -3
390
6
  0
LAYER
  5
26
330
11
100
AcDbSymbolTableRecord
100
AcDbLayerTableRecord
  2
4
 70
     0
 62
     4
  6
Continuous
370
    -3
390
6
  0
LAYER
  5
2D
330
11
100
AcDbSymbolTableRecord
100
AcDbLayerTableRecord
  2
AM_VIS
 70
     0
 62
     7
  6
Continuous
370
    50
390
6
  0
LAYER
  5
29
330
11
100
AcDbSymbolTableRecord
100
AcDbLayerTableRecord
  2
AM_HID
 70
     0
 62
     7
  6
AM_ISO02W050
370
    25
390
6
  0
ENDTAB
  0
TABLE
  2
STYLE
  5
12
330
0
100
AcDbSymbolTable
 70
     4
  0
STYLE
  5
13
330
12
100
AcDbSymbolTableRecord
100
AcDbTextStyleTableRecord
  2
Standard
 70
     0
 40
0.0
 41
1.0
 50
0.0
 71
     0
 42
5.0
  3
isocp.shx
  4

  0
STYLE
  5
225
330
12
100
AcDbSymbolTableRecord
100
AcDbTextStyleTableRecord
  2
ACISOTS
 70
     0
 40
1.0
 41
1.0
 50
0.0
 71
     0
 42
2.5
  3
isocp.shx
  4

  0
STYLE
  5
21B
330
12
100
AcDbSymbolTableRecord
100
AcDbTextStyleTableRecord
  2

 70
     1
 40
0.0
 41
1.0
 50
0.0
 71
     0
 42
2.5
  3
ltypeshp.shx
  4

  0
STYLE
  5
229
330
12
100
AcDbSymbolTableRecord
100
AcDbTextStyleTableRecord
  2
ACISOGDT
 70
     0
 40
0.0
 41
1.0
 50
0.0
 71
     0
 42
2.5
  3
amgdt.shx
  4

  0
ENDTAB
  0
TABLE
  2
VIEW
  5
18
330
0
100
AcDbSymbolTable
 70
     0
  0
ENDTAB
  0
TABLE
  2
UCS
  5
19
330
0
100
AcDbSymbolTable
 70
     0
  0
ENDTAB
  0
TABLE
  2
APPID
  5
1C
330
0
100
AcDbSymbolTable
 70
     1
  0
APPID
  5
1D
330
1C
100
AcDbSymbolTableRecord
100
AcDbRegAppTableRecord
  2
ACAD
 70
     0
  0
ENDTAB
  0
TABLE
  2
DIMSTYLE
  5
1E
330
0
100
AcDbSymbolTable
 70
     8
100
AcDbDimStyleTable
 71
     1
340
1F
  0
DIMSTYLE
105
1F
330
1E
100
AcDbSymbolTableRecord
100
AcDbDimStyleTableRecord
  2
ISO-25
 70
     0
 41
2.5
 42
0.5
 43
0.5
 44
0.5
 73
     0
 74
     0
 77
     1
 78
     8
 79
     2
140
3.2
141
0.0
143
0.03937007874016
147
0.5
171
     3
172
     1
176
   256
177
   256
178
   256
179
     2
271
     2
272
     2
274
     3
278
    44
283
     0
284
     8
288
     1
340
13
371
    -1
372
    -1
  0
DIMSTYLE
105
23D
330
1E
100
AcDbSymbolTableRecord
100
AcDbDimStyleTableRecord
  2
AM_ISO
 70
     0
  4
"
 41
2.5
 42
1.0
 43
10.0
 44
1.0
 47
0.1
 48
0.1
 73
     0
 74
     0
 77
     1
 78
     8
 79
     2
140
3.5
141
0.0
143
0.0393701
146
0.71
147
1.5
172
     1
176
   256
177
   256
178
     2
271
     2
272
     3
274
     4
283
     0
284
     8
340
13
371
    -1
372
    -1
  0
DIMSTYLE
105
23E
330
1E
100
AcDbSymbolTableRecord
100
AcDbDimStyleTableRecord
  2
AM_ISO$3
 70
     0
  4
"
 41
2.5
 42
1.0
 43
10.0
 44
1.0
 47
0.1
 48
0.1
 73
     0
 77
     1
 78
     8
 79
     2
140
3.5
141
0.0
143
0.0393701
146
0.71
147
1.5
176
   256
177
   256
178
     2
271
     2
272
     3
274
     4
283
     0
284
     8
288
     1
289
     0
340
13
371
    -1
372
    -1
  0
DIMSTYLE
105
23F
330
1E
100
AcDbSymbolTableRecord
100
AcDbDimStyleTableRecord
  2
AM_ISO$4
 70
     0
  4
"
 41
2.5
 42
1.0
 43
10.0
 44
1.0
 47
0.1
 48
0.1
 73
     0
 77
     1
 78
     8
 79
     2
140
3.5
141
0.0
143
0.0393701
146
0.71
147
1.5
176
   256
177
   256
178
     2
271
     2
272
     3
274
     4
283
     0
284
     8
288
     1
289
     0
340
13
371
    -1
372
    -1
  0
DIMSTYLE
105
240
330
1E
100
AcDbSymbolTableRecord
100
AcDbDimStyleTableRecord
  2
AM_ISO$6
 70
     0
  4
"
 41
2.5
 42
1.0
 43
10.0
 44
1.0
 47
0.1
 48
0.1
 73
     0
 74
     0
 78
     8
 79
     2
140
3.5
141
0.0
143
0.0393701
146
0.71
147
1.5
172
     1
176
   256
177
   256
178
     2
271
     2
272
     3
274
     4
283
     0
284
     8
340
13
371
    -1
372
    -1
  0
DIMSTYLE
105
241
330
1E
100
AcDbSymbolTableRecord
100
AcDbDimStyleTableRecord
  2
AM_ISO$7
 70
     0
  4
"
 41
2.5
 42
1.0
 43
10.0
 44
1.0
 47
0.1
 48
0.1
 73
     0
 74
     0
 77
     1
 78
     8
 79
     2
140
5.0
141
0.0
143
0.0393701
146
0.71
147
1.5
172
     1
176
   256
177
   256
178
     2
271
     2
272
     3
274
     4
283
     0
284
     8
340
13
371
    -1
372
    -1
  0
DIMSTYLE
105
242
330
1E
100
AcDbSymbolTableRecord
100
AcDbDimStyleTableRecord
  2
AM_ISO$SF
 70
     0
  4
"
 41
2.5
 42
1.0
 43
10.0
 44
1.0
 47
0.1
 48
0.1
 73
     0
 74
     0
 75
     1
 76
     1
 77
     1
 78
     8
 79
     2
140
3.5
141
0.0
143
0.0393701
146
0.71
147
1.5
172
     1
176
   256
177
   256
178
     2
271
     2
272
     3
274
     4
283
     0
284
     8
340
13
371
    -1
372
    -1
  0
DIMSTYLE
105
243
330
1E
100
AcDbSymbolTableRecord
100
AcDbDimStyleTableRecord
  2
AM_ISO$SH
 70
     0
  4
"
 41
2.5
 42
1.0
 43
10.0
 44
1.0
 47
0.1
 48
0.1
 73
     0
 74
     0
 75
     1
 76
     1
 77
     1
 78
     8
 79
     2
140
3.5
141
0.0
143
0.0393701
144
2.0
146
0.71
147
1.5
172
     1
173
     1
176
   256
177
   256
178
     2
271
     2
272
     3
274
     4
283
     0
284
     8
340
13
343
244
371
    -1
372
    -1
  0
ENDTAB
  0
TABLE
  2
BLOCK_RECORD
  5
1
330
0
100
AcDbSymbolTable
 70
     1
  0
BLOCK_RECORD
  5
2
102
{ACAD_XDICTIONARY
360
3
102
}
330
1
100
AcDbSymbolTableRecord
100
AcDbBlockTableRecord
  2
*Model_Space
340
B
  0
BLOCK_RECORD
  5
D
330
1
100
AcDbSymbolTableRecord
100
AcDbBlockTableRecord
  2
*Paper_Space
340
10
  0
BLOCK_RECORD
  5
244
330
1
100
AcDbSymbolTableRecord
100
AcDbBlockTableRecord
  2
GENAXEH
340
0
  0
ENDTAB
  0
ENDSEC
  0
SECTION
  2
BLOCKS
  0
BLOCK
  5
4
330
2
100
AcDbEntity
  8
0
100
AcDbBlockBegin
  2
*Model_Space
 70
     0
 10
0.0
 20
0.0
 30
0.0
  3
*Model_Space
  1

  0
ENDBLK
  5
A
330
2
100
AcDbEntity
  8
0
100
AcDbBlockEnd
  0
BLOCK
  5
E
330
D
100
AcDbEntity
 67
     1
  8
0
100
AcDbBlockBegin
  2
*Paper_Space
 70
     0
 10
0.0
 20
0.0
 30
0.0
  3
*Paper_Space
  1

  0
ENDBLK
  5
F
330
D
100
AcDbEntity
 67
     1
  8
0
100
AcDbBlockEnd
  0
BLOCK
  5
245
330
244
100
AcDbEntity
  8
0
100
AcDbBlockBegin
  2
GENAXEH
 70
     0
 10
0.0
 20
0.0
 30
0.0
  3
GENAXEH
  1

  0
LINE
  5
246
330
244
100
AcDbEntity
  8
0
100
AcDbLine
 10
-1.0
 20
0.0
 30
0.0
 11
1.0
 21
0.0
 31
0.0
  0
ENDBLK
  5
247
330
244
100
AcDbEntity
  8
0
100
AcDbBlockEnd
  0
ENDSEC
  0
SECTION
  2
ENTITIES
  0
CIRCLE
  5
28
330
2
100
AcDbEntity
  8
AM_HID
100
AcDbCircle
 10
-532.2957264700418
 20
192.6159630362007
 30
0.0
 40
4.300000000000023
  0
CIRCLE
  5
2B
330
2
100
AcDbEntity
  8
AM_HID
100
AcDbCircle
 10
-532.2957264700418
 20
192.6159630362007
 30
0.0
 40
4.278182830523737
  0
LINE
  5
2C
330
2
100
AcDbEntity
  8
AM_VIS
100
AcDbLine
 10
-612.6554518277554
 20
283.3526493370157
 30
0.0
 11
-606.0928414281529
 21
287.1415742178128
 31
0.0
  0
LINE
  5
2E
330
2
100
AcDbEntity
  8
0
100
AcDbLine
 10
-627.8825981296936
 20
286.3904514227648
 30
0.0
 11
-619.2915660389066
 21
281.1711285983275
 31
0.0
  0
LINE
  5
2F
330
2
100
AcDbEntity
  8
AM_VIS
100
AcDbLine
 10
-619.2915219729889
 20
279.521312452304
 30
0.0
 11
-619.2915660389066
 21
281.1711285983275
 31
0.0
  0
LINE
  5
30
330
2
100
AcDbEntity
  8
AM_VIS
100
AcDbLine
 10
-629.2749643413834
 20
285.586568415635
 30
0.0
 11
-622.6388941961499
 21
289.4179053003467
 31
0.0
  0
LINE
  5
31
330
2
100
AcDbEntity
  8
0
100
AcDbLine
 10
-622.6388941961502
 20
289.4179053003468
 30
0.0
 11
-612.6554518277555
 21
283.3526493370157
 31
0.0
  0
LINE
  5
32
330
2
100
AcDbEntity
  8
0
100
AcDbLine
 10
-629.2749643413834
 20
285.586568415635
 30
0.0
 11
-619.2915219729889
 21
279.521312452304
 31
0.0
  0
LINE
  5
33
330
2
100
AcDbEntity
  8
AM_VIS
100
AcDbLine
 10
-630.6674598302147
 20
282.9927056179141
 30
0.0
 11
-655.5777013159119
 21
268.6107709905683
 31
0.0
  0
SPLINE
  5
34
330
2
100
AcDbEntity
  8
AM_VIS
100
AcDbSpline
210
0.0
220
0.0
230
1.0
 70
    24
 71
     3
 72
    11
 73
     7
 74
     0
 42
0.0000000001
 43
0.0000000001
 40
0.4555418411909347
 40
0.4555418411909347
 40
0.4555418411909347
 40
0.4555418411909347
 40
0.4999999999999979
 40
0.6666666666666652
 40
0.8333333333333337
 40
1.0
 40
1.0
 40
1.0
 40
1.0
 10
-630.7199339986802
 20
283.8606793556782
 30
0.0
 10
-630.7185057255262
 20
283.8370543297993
 30
0.0
 10
-630.7117230802607
 20
283.7248627861285
 30
0.0
 10
-630.6995860628834
 20
283.5241047246659
 30
0.0
 10
-630.6835229465486
 20
283.2584051712904
 30
0.0
 10
-630.6728142023253
 20
283.0812721357067
 30
0.0
 10
-630.6674598302135
 20
282.9927056179148
 30
0.0
  0
LINE
  5
35
330
2
100
AcDbEntity
  8
AM_VIS
100
AcDbLine
 10
-631.6697276224992
 20
284.0638876257316
 30
0.0
 11
-655.5777264032244
 21
270.2605980938947
 31
0.0
  0
LINE
  5
36
330
2
100
AcDbEntity
  8
AM_VIS
100
AcDbLine
 10
-655.5777264032244
 20
270.2605980938947
 30
0.0
 11
-655.5777013159119
 21
268.6107709905683
 31
0.0
  0
SPLINE
  5
37
330
2
100
AcDbEntity
  8
AM_VIS
100
AcDbSpline
210
0.0
220
0.0
230
1.0
 70
     8
 71
     3
 72
    16
 73
    12
 74
     0
 42
0.0000000001
 43
0.0000000001
 40
0.0
 40
0.0
 40
0.0
 40
0.0
 40
0.1097022307235021
 40
0.2257443750411999
 40
0.3466087105536436
 40
0.4630157855563586
 40
0.5800352971498963
 40
0.6957057845526539
 40
0.8013109390051154
 40
0.9028503477777006
 40
1.0
 40
1.0
 40
1.0
 40
1.0
 10
-630.6674598302135
 20
282.9927056179148
 30
0.0
 10
-630.627069196762
 20
283.0186112575885
 30
0.0
 10
-630.5510033186886
 20
283.0677614780722
 30
0.0
 10
-630.4606867060573
 20
283.1615651194155
 30
0.0
 10
-630.3998501289884
 20
283.2641590691944
 30
0.0
 10
-630.3723952243338
 20
283.3728904633936
 30
0.0
 10
-630.3787379413998
 20
283.4815511854385
 30
0.0
 10
-630.416928366553
 20
283.5848534860539
 30
0.0
 10
-630.4814425987101
 20
283.6788948940874
 30
0.0
 10
-630.5648938530628
 20
283.7596894153247
 30
0.0
 10
-630.6334611862125
 20
283.809834395173
 30
0.0
 10
-630.669290420711
 20
283.829908967617
 30
0.0
  0
LINE
  5
38
330
2
100
AcDbEntity
  8
AM_VIS
100
AcDbLine
 10
-630.7656250930797
 20
283.888440678278
 30
0.0
 11
-630.669290420711
 21
283.829908967617
 31
0.0
  0
SPLINE
  5
39
330
2
100
AcDbEntity
  8
AM_VIS
100
AcDbSpline
210
0.0
220
0.0
230
1.0
 70
     8
 71
     3
 72
    16
 73
    12
 74
     0
 42
0.0000000001
 43
0.0000000001
 40
0.0
 40
0.0
 40
0.0
 40
0.0
 40
0.1098198486952183
 40
0.2259438297831591
 40
0.3468644481198273
 40
0.4633145637185164
 40
0.580379543746477
 40
0.696105023868628
 40
0.8017703546847647
 40
0.9033724936011868
 40
1.0
 40
1.0
 40
1.0
 40
1.0
 10
-632.1793005461439
 20
283.9097491259995
 30
0.0
 10
-632.1386783979391
 20
283.9339441075848
 30
0.0
 10
-632.0477442032938
 20
283.9767503666844
 30
0.0
 10
-631.8896538172696
 20
284.0286675097782
 30
0.0
 10
-631.7140665010772
 20
284.062164053807
 30
0.0
 10
-631.5298044166513
 20
284.0758212900858
 30
0.0
 10
-631.346303817915
 20
284.0693488350007
 30
0.0
 10
-631.1725327880403
 20
284.0440090741513
 30
0.0
 10
-631.0157557134178
 20
284.0035328143176
 30
0.0
 10
-630.8798092003664
 20
283.9513181822909
 30
0.0
 10
-630.8013348002774
 20
283.9112202763591
 30
0.0
 10
-630.7656250930797
 20
283.888440678278
 30
0.0
  0
LINE
  5
3A
330
2
100
AcDbEntity
  8
AM_VIS
100
AcDbLine
 10
-657.0869566257804
 20
269.5293071835388
 30
0.0
 11
-632.1622839350696
 21
283.919573670984
 31
0.0
  0
ELLIPSE
  5
3B
330
2
100
AcDbEntity
  8
AM_VIS
100
AcDbEllipse
 10
-656.3798495954458
 20
269.0999335470327
 30
0.0
 11
1.000217065759045
 21
-0.0224541837405694
 31
0.0
210
0.0
220
0.0
230
0.9999999999999998
 40
0.592094174369881
 41
2.369180884486222
 42
3.939672435289068
  0
LINE
  5
3C
330
2
100
AcDbEntity
  8
AM_VIS
100
AcDbLine
 10
-657.035088707604
 20
269.5592531400603
 30
0.0
 11
-657.0876034687244
 21
268.6915669448689
 31
0.0
  0
LINE
  5
3D
330
2
100
AcDbEntity
  8
AM_VIS
100
AcDbLine
 10
-656.9904066169329
 20
268.6325113850551
 30
0.0
 11
-657.0876034687244
 21
268.6915669448689
 31
0.0
  0
LINE
  5
3E
330
2
100
AcDbEntity
  8
AM_VIS
100
AcDbLine
 10
-656.9904211011373
 20
269.5850419946778
 30
0.0
 11
-656.9904066169329
 21
268.6325113850552
 31
0.0
  0
ELLIPSE
  5
3F
330
2
100
AcDbEntity
  8
AM_VIS
100
AcDbEllipse
 10
-656.2843781321598
 20
269.0419263111329
 30
0.0
 11
0.9998972547362573
 21
-0.0241802554032856
 31
0.0
210
0.0
220
0.0
230
1.0
 40
0.5935082625487047
 41
3.942866506146505
 42
5.511530698944901
  0
ELLIPSE
  5
40
330
2
100
AcDbEntity
  8
AM_VIS
100
AcDbEllipse
 10
-656.2844032194723
 20
270.6917534144593
 30
0.0
 11
0.9998972547362573
 21
-0.0241802554032854
 31
0.0
210
0.0
220
0.0
230
1.0
 40
0.5935082625487046
 41
4.925404788980657
 42
5.511530698944903
  0
LINE
  5
41
330
2
100
AcDbEntity
  8
AM_VIS
100
AcDbLine
 10
-653.5514039961571
 20
267.3811729642019
 30
0.0
 11
-628.6425450946523
 21
281.7623093561921
 31
0.0
  0
LINE
  5
42
330
2
100
AcDbEntity
  8
AM_VIS
100
AcDbLine
 10
-627.229768009706
 20
281.7406097023443
 30
0.0
 11
-627.1325718366458
 21
281.681554554919
 31
0.0
  0
ELLIPSE
  5
43
330
2
100
AcDbEntity
  8
AM_VIS
100
AcDbEllipse
 10
-627.9370907408464
 20
281.3319815464473
 30
0.0
 11
0.9999118660771447
 21
-0.0224620551720691
 31
0.0
210
0.0
220
0.0
230
1.0
 40
0.5924549991437653
 41
0.7984012799394816
 42
2.368892950634725
  0
LINE
  5
44
330
2
100
AcDbEntity
  8
AM_VIS
100
AcDbLine
 10
-653.7590244451648
 20
271.4506897238619
 30
0.0
 11
-653.7590244451648
 21
271.3106261589561
 31
0.0
  0
ELLIPSE
  5
45
330
2
100
AcDbEntity
  8
AM_VIS
100
AcDbEllipse
 10
-652.7488696533863
 20
268.5436081887841
 30
0.0
 11
0.9998974316610759
 21
-0.024180677033507
 31
-0.0000000000000001
210
0.0000000000000001
220
0.0
230
1.0
 40
0.5935077565257443
 41
4.925405684080458
 42
5.511531594044708
  0
LINE
  5
46
330
2
100
AcDbEntity
  8
AM_VIS
100
AcDbLine
 10
-652.0421922429764
 20
268.1124532112591
 30
0.0
 11
-628.13390789724
 21
281.9159076141321
 31
0.0
  0
LINE
  5
47
330
2
100
AcDbEntity
  8
AM_VIS
100
AcDbLine
 10
-627.1844321268702
 20
281.7130642017322
 30
0.0
 11
-627.1319259242809
 21
280.8445605884502
 31
0.0
  0
ELLIPSE
  5
48
330
2
100
AcDbEntity
  8
AM_VIS
100
AcDbEllipse
 10
-627.8416192775605
 20
281.2739743105475
 30
0.0
 11
-1.002032625622288
 21
0.0241173639751015
 31
0.0
210
0.0
220
0.0
230
1.0
 40
0.5909843536054882
 41
2.371939494095144
 42
3.940604525631265
  0
LINE
  5
49
330
2
100
AcDbEntity
  8
AM_VIS
100
AcDbLine
 10
-652.0421481770587
 20
266.4626370652355
 30
0.0
 11
-652.0421922429764
 21
268.1124532112591
 31
0.0
  0
LINE
  5
4A
330
2
100
AcDbEntity
  8
AM_VIS
100
AcDbLine
 10
-627.1319259242808
 20
280.8445605884502
 30
0.0
 11
-652.0421481770587
 21
266.4626370652355
 31
0.0
  0
LINE
  5
4B
330
2
100
AcDbEntity
  8
AM_VIS
100
AcDbLine
 10
-653.4548543263755
 20
266.4843776737882
 30
0.0
 11
-653.4548797678925
 21
267.4369012533738
 31
0.0
  0
ELLIPSE
  5
4C
330
2
100
AcDbEntity
  8
AM_VIS
100
AcDbEllipse
 10
-652.7488255874686
 20
266.8937920427605
 30
0.0
 11
-0.9998974316610759
 21
0.0241806770335072
 31
0.0
210
0.0
220
0.0
230
1.0
 40
0.5935077565257445
 41
0.8012739089188173
 42
2.369938940454917
  0
LINE
  5
4D
330
2
100
AcDbEntity
  8
AM_VIS
100
AcDbLine
 10
-653.4548543263755
 20
266.4843776737882
 30
0.0
 11
-653.5520504994356
 21
266.5434328212135
 31
0.0
  0
LINE
  5
4E
330
2
100
AcDbEntity
  8
AM_VIS
100
AcDbLine
 10
-653.5520504994356
 20
266.5434328212135
 30
0.0
 11
-653.499546080489
 21
267.4111131457725
 31
0.0
  0
ELLIPSE
  5
4F
330
2
100
AcDbEntity
  8
AM_VIS
100
AcDbEllipse
 10
-652.8442970507545
 20
266.9517992786603
 30
0.0
 11
-1.000216761896593
 21
0.0224546178185104
 31
-0.0000000000000001
210
-0.0000000000000001
220
0.0
230
0.9999999999999998
 40
0.5920942380348845
 41
5.510773980543446
 42
7.081265651238715
  0
ELLIPSE
  5
50
330
2
100
AcDbEntity
  8
AM_VIS
100
AcDbEllipse
 10
-668.88202814979
 20
270.1297469382857
 30
0.0
 11
-0.75
 21
1.299038105676658
 31
-0.0000000000000002
210
-0.0000000000000001
220
0.0000000000000001
230
1.0
 40
0.5773502691896259
 41
0.7853981633974409
 42
2.330014551413178
  0
ELLIPSE
  5
51
330
2
100
AcDbEntity
  8
AM_VIS
100
AcDbEllipse
 10
-668.88202814979
 20
270.1297469382858
 30
0.0
 11
-1.5
 21
-0.000000000000089
 31
0.0
210
0.0
220
0.0
230
1.0
 40
0.5773502691896257
 41
5.497787143781962
 42
6.283185307179413
  0
ELLIPSE
  5
52
330
2
100
AcDbEntity
  8
AM_VIS
100
AcDbEllipse
 10
-668.88202814979
 20
270.1297469382857
 30
0.0
 11
-0.8080875890310819
 21
-1.263722457050571
 31
-0.0000000000000002
210
-0.0000000000000001
220
-0.0000000000000001
230
1.0
 40
0.576954785403239
 41
0.0000000000000022
 42
0.8112175608170861
  0
ELLIPSE
  5
53
330
2
100
AcDbEntity
  8
AM_VIS
100
AcDbEllipse
 10
-621.6944634900784
 20
297.3735000969731
 30
0.0
 11
-0.75
 21
1.299038105676658
 31
-0.0000000000000002
210
-0.0000000000000001
220
0.0000000000000001
230
1.0
 40
0.5773502691896259
 41
0.7853981633974483
 42
2.330014551413178
  0
LINE
  5
54
330
2
100
AcDbEntity
  8
AM_VIS
100
AcDbLine
 10
-669.9426883215699
 20
270.7421193739815
 30
0.0
 11
-622.7551236618583
 21
297.9858725326689
 31
0.0
  0
LINE
  5
55
330
2
100
AcDbEntity
  8
AM_VIS
100
AcDbLine
 10
-668.9097929962781
 20
268.9214517979668
 30
0.0
 11
-621.7222283365665
 21
296.1652049566542
 31
0.0
  0
ELLIPSE
  5
56
330
2
100
AcDbEntity
  8
AM_VIS
100
AcDbEllipse
 10
-621.6944634900783
 20
297.3735000969731
 30
0.0
 11
-1.5
 21
-0.0000000000000898
 31
0.0
210
0.0
220
0.0
230
1.0
 40
0.5773502691896257
 41
3.953170755766225
 42
5.497787143781984
  0
ELLIPSE
  5
57
330
2
100
AcDbEntity
  8
AM_VIS
100
AcDbEllipse
 10
-621.6944634900784
 20
297.3735000969731
 30
0.0
 11
0.7500000000000023
 21
1.299038105676656
 31
0.0000000000000002
210
-0.0000000000000001
220
-0.0000000000000001
230
1.0
 40
0.5467385998850304
 41
3.92733343332542
 42
5.497444527443989
  0
LINE
  5
58
330
2
100
AcDbEntity
  8
AM_VIS
100
AcDbLine
 10
-622.7551236618581
 20
352.4733788500437
 30
0.0
 11
-622.7551236618581
 21
297.9858725326689
 31
0.0
  0
LINE
  5
59
330
2
100
AcDbEntity
  8
AM_VIS
100
AcDbLine
 10
-620.6619316265369
 20
352.4891990469
 30
0.0
 11
-620.6619316265369
 21
298.0016927295235
 31
0.0
  0
ELLIPSE
  5
5A
330
2
100
AcDbEntity
  8
AM_VIS
100
AcDbEllipse
 10
-621.6944634900784
 20
351.861006414348
 30
0.0
 11
-1.5
 21
-0.0000000000000904
 31
-0.0000000000000002
210
-0.0000000000000001
220
0.0
230
1.0
 40
0.5773502691896252
 41
3.953170755766235
 42
5.497787143781961
  0
LINE
  5
5B
330
2
100
AcDbEntity
  8
AM_VIS
100
AcDbLine
 10
-605.0325447181233
 20
288.9780619906821
 30
0.0
 11
-605.0325447181233
 21
344.3866181171546
 31
0.0
  0
LINE
  5
5C
330
2
100
AcDbEntity
  8
AM_VIS
100
AcDbLine
 10
-605.0325447181233
 20
344.3866181171546
 30
0.0
 11
-620.6619316265369
 21
352.4891990468983
 31
0.0
  0
LINE
  5
5D
330
2
100
AcDbEntity
  8
AM_VIS
100
AcDbLine
 10
-620.6619316265369
 20
298.0016927295235
 30
0.0
 11
-605.0325447181233
 21
288.9780619906821
 31
0.0
  0
ELLIPSE
  5
5E
330
2
100
AcDbEntity
  8
AM_VIS
100
AcDbEllipse
 10
-606.0935684762454
 20
288.3663191611375
 30
0.0
 11
0.7499999999999936
 21
1.299038105676662
 31
-0.0000000000000001
210
0.0
220
0.0
230
0.9999999999999998
 40
0.5777460240673164
 41
3.927333433325393
 42
5.497444527443988
  0
LINE
  5
5F
330
2
100
AcDbEntity
  8
AM_VIS
100
AcDbLine
 10
-621.7222283365665
 20
296.1652049566542
 30
0.0
 11
-606.0928414281529
 21
287.1415742178128
 31
0.0
  0
LINE
  5
60
330
2
100
AcDbEntity
  8
AM_VIS
100
AcDbLine
 10
-654.078058620694
 20
259.4372961545765
 30
0.0
 11
-619.2915219729887
 21
279.5213124523039
 31
0.0
  0
LINE
  5
61
330
2
100
AcDbEntity
  8
AM_VIS
100
AcDbLine
 10
-654.078058620694
 20
259.4372961545765
 30
0.0
 11
-668.9097929962781
 21
268.9214517979668
 31
0.0
  0
ELLIPSE
  5
62
330
2
100
AcDbEntity
  8
AM_VIS
100
AcDbEllipse
 10
-654.0773315726014
 20
260.6628806207252
 30
0.0
 11
-0.7505141006666259
 21
-1.299928554151463
 31
0.0
210
0.0
220
0.0
230
1.0
 40
0.576954785403239
 41
6.257023293421799
 42
7.068240854238872
  0
ELLIPSE
  5
63
330
2
100
AcDbEntity
  8
AM_VIS
100
AcDbEllipse
 10
-606.0935684762454
 20
343.7731962419624
 30
0.0
 11
0.7505141006666242
 21
1.299928554151464
 31
0.0000000000000002
210
-0.0000000000000001
220
-0.0000000000000001
230
1.0
 40
0.5769547854032396
 41
5.498129760120279
 42
6.309347320937347
  0
ELLIPSE
  5
64
330
2
100
AcDbEntity
  8
AM_VIS
100
AcDbEllipse
 10
-621.6944634900783
 20
351.8610064143479
 30
0.0
 11
0.6903719566231468
 21
1.331685609109123
 31
0.0000000000000002
210
-0.0000000000000001
220
-0.0000000000000001
230
1.0
 40
0.5769547854032398
 41
5.471967746362542
 42
6.283185307179591
  0
ELLIPSE
  5
65
330
2
100
AcDbEntity
  8
AM_VIS
100
AcDbEllipse
 10
-621.6944634900783
 20
351.861006414348
 30
0.0
 11
-0.7499999999999221
 21
1.299038105676703
 31
-0.0000000000000002
210
-0.0000000000000001
220
0.0000000000000001
230
1.0
 40
0.577350269189626
 41
0.0000000000001612
 42
0.7853981633976132
  0
ELLIPSE
  5
66
330
2
100
AcDbEntity
  8
AM_VIS
100
AcDbEllipse
 10
-668.88202814979
 20
324.6172532556606
 30
0.0
 11
-0.7499999999999221
 21
1.299038105676703
 31
-0.0000000000000002
210
-0.0000000000000001
220
0.0000000000000001
230
1.0
 40
0.577350269189626
 41
0.0000000000001732
 42
0.7853981633976215
  0
LINE
  5
67
330
2
100
AcDbEntity
  8
AM_VIS
100
AcDbLine
 10
-622.7551236618581
 20
352.4733788500438
 30
0.0
 11
-669.9426883215699
 21
325.2296256913564
 31
0.0
  0
ELLIPSE
  5
68
330
2
100
AcDbEntity
  8
AM_VIS
100
AcDbEllipse
 10
-668.88202814979
 20
324.6172532556606
 30
0.0
 11
-1.5
 21
-0.000000000000089
 31
0.0
210
0.0
220
0.0
230
1.0
 40
0.5773502691896257
 41
5.497787143781966
 42
6.283185307179415
  0
LINE
  5
69
330
2
100
AcDbEntity
  8
AM_VIS
100
AcDbLine
 10
-669.9426883215699
 20
325.2296256913564
 30
0.0
 11
-669.9426883215699
 21
270.7421193739816
 31
0.0
  0
ARC
  5
6A
330
2
100
AcDbEntity
  8
AM_VIS
100
AcDbCircle
 10
-668.88202814979
 20
270.1297469382858
 30
0.0
 40
1.5
100
AcDbArc
 50
180.0
 51
237.4031097798079
  0
LINE
  5
6B
330
2
100
AcDbEntity
  8
AM_VIS
100
AcDbLine
 10
-654.8472081149358
 20
259.3747241018857
 30
0.0
 11
-669.6901157388211
 21
268.8660244812352
 31
0.0
  0
LINE
  5
6C
330
2
100
AcDbEntity
  8
AM_VIS
100
AcDbLine
 10
-605.362930478047
 20
345.0840071448214
 30
0.0
 11
-621.0040915334552
 21
353.192692023457
 31
0.0
  0
ARC
  5
6D
330
2
100
AcDbEntity
  8
AM_VIS
100
AcDbCircle
 10
-621.6944634900783
 20
351.861006414348
 30
0.0
 40
1.5
100
AcDbArc
 50
62.59689022019185
 51
120.0000000000001
  0
LINE
  5
6E
330
2
100
AcDbEntity
  8
AM_VIS
100
AcDbLine
 10
-622.4444634900783
 20
353.1600445200246
 30
0.0
 11
-669.63202814979
 21
325.9162913613373
 31
0.0
  0
ARC
  5
6F
330
2
100
AcDbEntity
  8
AM_VIS
100
AcDbCircle
 10
-668.88202814979
 20
324.6172532556606
 30
0.0
 40
1.5
100
AcDbArc
 50
120.0000000000001
 51
180.0
  0
LINE
  5
70
330
2
100
AcDbEntity
  8
AM_VIS
100
AcDbLine
 10
-670.3820281497899
 20
324.6172532556606
 30
0.0
 11
-670.3820281497899
 21
270.1297469382858
 31
0.0
  0
LINE
  5
71
330
2
100
AcDbEntity
  8
0
100
AcDbLine
 10
-567.6934502739677
 20
134.8946511549005
 30
0.0
 11
-575.6934502739677
 21
134.8946511549005
 31
0.0
  0
LINE
  5
72
330
2
100
AcDbEntity
  8
0
100
AcDbLine
 10
-567.6934502739677
 20
149.0127077648575
 30
0.0
 11
-567.6934502739677
 21
134.8946511549005
 31
0.0
  0
LINE
  5
73
330
2
100
AcDbEntity
  8
0
100
AcDbLine
 10
-575.6934502739677
 20
149.0127077648575
 30
0.0
 11
-575.6934502739677
 21
134.8946511549005
 31
0.0
  0
LINE
  5
74
330
2
100
AcDbEntity
  8
AM_HID
100
AcDbLine
 10
-529.5457264700417
 20
130.6127077648575
 30
0.0
 11
-529.5282660852964
 21
130.1127077648575
 31
0.0
  0
LINE
  5
75
330
2
100
AcDbEntity
  8
AM_HID
100
AcDbLine
 10
-535.0457264700416
 20
130.6127077648575
 30
0.0
 11
-535.063186854787
 21
130.1127077648575
 31
0.0
  0
SPLINE
  5
76
330
2
100
AcDbEntity
  8
AM_HID
100
AcDbSpline
210
0.0
220
0.0
230
1.0
 70
     8
 71
     1
 72
    12
 73
    10
 74
     0
 42
0.0000000001
 43
0.0000000001
 40
0.0
 40
0.0
 40
0.0768846453916432
 40
0.1537692907832864
 40
0.2306539361749297
 40
0.3075385815665728
 40
0.3844232269582162
 40
0.4613078723498595
 40
0.5299732959046693
 40
0.598638719459479
 40
0.6670782828175294
 40
0.6670782828175294
 10
-515.913448121879
 20
126.8456462534155
 30
0.0
 10
-515.8815705985871
 20
126.9140751327538
 30
0.0
 10
-515.8531179303853
 20
126.9840234580277
 30
0.0
 10
-515.8281965723574
 20
127.0552276550083
 30
0.0
 10
-515.8069129795874
 20
127.1274241494667
 30
0.0
 10
-515.7893736071589
 20
127.2003493671738
 30
0.0
 10
-515.7756849101562
 20
127.2737397339006
 30
0.0
 10
-515.7667156348801
 20
127.3396042331873
 30
0.0
 10
-515.7606893857827
 20
127.4058105046979
 30
0.0
 10
-515.7575166209096
 20
127.4720808291815
 30
0.0
  0
SPLINE
  5
77
330
2
100
AcDbEntity
  8
AM_HID
100
AcDbSpline
210
0.0
220
0.0
230
1.0
 70
     8
 71
     1
 72
     8
 73
     6
 74
     0
 42
0.0000000001
 43
0.0000000001
 40
0.0
 40
0.0
 40
0.0843880818235083
 40
0.1687761636470165
 40
0.2531642454705247
 40
0.337552327294033
 40
0.4219404091175412
 40
0.4219404091175412
 10
-516.4792121902499
 20
126.2300910718413
 30
0.0
 10
-516.4083533392449
 20
126.2758692055367
 30
0.0
 10
-516.3400311428396
 20
126.3256837085844
 30
0.0
 10
-516.2745598726478
 20
126.379273007377
 30
0.0
 10
-516.2122538002835
 20
126.4363755283071
 30
0.0
 10
-516.1534271973603
 20
126.4967296977677
 30
0.0
  0
SPLINE
  5
78
330
2
100
AcDbEntity
  8
AM_HID
100
AcDbSpline
210
0.0
220
0.0
230
1.0
 70
     8
 71
     1
 72
     9
 73
     7
 74
     0
 42
0.0000000001
 43
0.0000000001
 40
0.0
 40
0.0
 40
0.0730765038128792
 40
0.1461530076257584
 40
0.2192295114386376
 40
0.2923060152515168
 40
0.365382519064396
 40
0.4384590228772752
 40
0.4384590228772752
 10
-516.490468051802
 20
126.2233329667042
 30
0.0
 10
-516.4286232136881
 20
126.2621989984761
 30
0.0
 10
-516.3686136643475
 20
126.3041447307638
 30
0.0
 10
-516.3106446950622
 20
126.3490006854526
 30
0.0
 10
-516.254921597114
 20
126.3965973844275
 30
0.0
 10
-516.2016496617849
 20
126.4467653495736
 30
0.0
 10
-516.1510341803569
 20
126.4993351027762
 30
0.0
  0
SPLINE
  5
79
330
2
100
AcDbEntity
  8
AM_VIS
100
AcDbSpline
210
0.0
220
0.0
230
1.0
 70
     8
 71
     1
 72
    12
 73
    10
 74
     0
 42
0.0000000001
 43
0.0000000001
 40
0.0
 40
0.0
 40
0.0756243712936831
 40
0.1512487425873662
 40
0.2268731138810493
 40
0.3024974851747324
 40
0.3781218564684155
 40
0.4537462277620987
 40
0.5305001850072166
 40
0.6072541422523344
 40
0.6840080994974521
 40
0.6840080994974521
 10
-515.9209697014778
 20
126.8307069029247
 30
0.0
 10
-515.8888266656961
 20
126.8976851821556
 30
0.0
 10
-515.8599769319348
 20
126.9662022531655
 30
0.0
 10
-515.8345273170445
 20
127.0359971314192
 30
0.0
 10
-515.8125846378754
 20
127.1068088323818
 30
0.0
 10
-515.7942557112781
 20
127.1783763715182
 30
0.0
 10
-515.7796473541025
 20
127.2504387642932
 30
0.0
 10
-515.7686208471289
 20
127.3239952826742
 30
0.0
 10
-515.761276955243
 20
127.3979377695765
 30
0.0
 10
-515.7575120708099
 20
127.4720804301022
 30
0.0
  0
LINE
  5
7A
330
2
100
AcDbEntity
  8
AM_HID
100
AcDbLine
 10
-583.7852033985304
 20
136.8727740494728
 30
0.0
 11
-585.0354448251575
 21
136.8400353255335
 31
0.0
  0
LINE
  5
7B
330
2
100
AcDbEntity
  8
AM_HID
100
AcDbLine
 10
-535.7988508596929
 20
126.3127077648576
 30
0.0
 11
-535.8957264700418
 21
131.8627077648575
 31
0.0
  0
LINE
  5
7C
330
2
100
AcDbEntity
  8
AM_HID
100
AcDbLine
 10
-528.7926020803906
 20
126.3127077648576
 30
0.0
 11
-528.6957264700418
 21
131.8627077648575
 31
0.0
  0
SPLINE
  5
7D
330
2
100
AcDbEntity
  8
AM_HID
100
AcDbSpline
210
0.0
220
0.0
230
1.0
 70
    24
 71
     1
 72
     9
 73
     7
 74
     0
 42
0.0000000001
 43
0.0000000001
 40
0.0
 40
0.0
 40
0.5000000000000005
 40
1.0
 40
1.400000000000001
 40
1.800000000000001
 40
2.200000000000001
 40
2.50009519596433
 40
2.50009519596433
 10
-527.9957264700417
 20
131.8627077648575
 30
0.0
 10
-528.0000897377909
 20
132.3626887263896
 30
0.0
 10
-528.0044530055398
 20
132.8626696879217
 30
0.0
 10
-528.007943619739
 20
133.2626544571474
 30
0.0
 10
-528.0114342339384
 20
133.662639226373
 30
0.0
 10
-528.0149248481376
 20
134.0626239955987
 30
0.0
 10
-528.0175436395181
 20
134.3627077648575
 30
0.0
  0
SPLINE
  5
7E
330
2
100
AcDbEntity
  8
AM_HID
100
AcDbSpline
210
0.0
220
0.0
230
1.0
 70
    24
 71
     1
 72
     9
 73
     7
 74
     0
 42
0.0000000001
 43
0.0000000001
 40
0.0
 40
0.0
 40
0.5
 40
1.0
 40
1.4
 40
1.8
 40
2.2
 40
2.50009519596433
 40
2.50009519596433
 10
-536.5739093005654
 20
134.3627077648575
 30
0.0
 10
-536.5782725683145
 20
133.8627268033254
 30
0.0
 10
-536.5826358360635
 20
133.3627458417934
 30
0.0
 10
-536.5861264502627
 20
132.9627610725677
 30
0.0
 10
-536.5896170644621
 20
132.562776303342
 30
0.0
 10
-536.5931076786613
 20
132.1627915341163
 30
0.0
 10
-536.5957264700417
 20
131.8627077648575
 30
0.0
  0
SPLINE
  5
7F
330
2
100
AcDbEntity
  8
AM_HID
100
AcDbSpline
210
0.0
220
0.0
230
1.0
 70
    24
 71
     1
 72
     9
 73
     7
 74
     0
 42
0.0000000001
 43
0.0000000001
 40
0.0
 40
0.0
 40
0.5
 40
0.9999999999999998
 40
1.4
 40
1.8
 40
2.2
 40
2.50009519596433
 40
2.50009519596433
 10
-528.7957264700416
 20
131.8627077648575
 30
0.0
 10
-528.7913632022926
 20
132.3626887263896
 30
0.0
 10
-528.7869999345437
 20
132.8626696879217
 30
0.0
 10
-528.7835093203443
 20
133.2626544571474
 30
0.0
 10
-528.7800187061451
 20
133.662639226373
 30
0.0
 10
-528.7765280919459
 20
134.0626239955987
 30
0.0
 10
-528.7739093005654
 20
134.3627077648575
 30
0.0
  0
SPLINE
  5
80
330
2
100
AcDbEntity
  8
AM_HID
100
AcDbSpline
210
0.0
220
0.0
230
1.0
 70
    24
 71
     1
 72
     9
 73
     7
 74
     0
 42
0.0000000001
 43
0.0000000001
 40
0.0
 40
0.0
 40
0.5000000000000005
 40
1.0
 40
1.4
 40
1.8
 40
2.2
 40
2.500095195964329
 40
2.500095195964329
 10
-535.817543639518
 20
134.3627077648575
 30
0.0
 10
-535.8131803717689
 20
133.8627268033254
 30
0.0
 10
-535.8088171040199
 20
133.3627458417934
 30
0.0
 10
-535.8053264898205
 20
132.9627610725677
 30
0.0
 10
-535.8018358756214
 20
132.562776303342
 30
0.0
 10
-535.7983452614221
 20
132.1627915341163
 30
0.0
 10
-535.7957264700416
 20
131.8627077648575
 30
0.0
  0
LINE
  5
81
330
2
100
AcDbEntity
  8
AM_HID
100
AcDbLine
 10
-533.6457264700418
 20
130.6127077648575
 30
0.0
 11
-533.6457264700418
 21
131.8627077648575
 31
0.0
  0
LINE
  5
82
330
2
100
AcDbEntity
  8
AM_HID
100
AcDbLine
 10
-530.9457264700418
 20
130.6127077648575
 30
0.0
 11
-530.9457264700418
 21
131.8627077648575
 31
0.0
  0
LINE
  5
83
330
2
100
AcDbEntity
  8
AM_HID
100
AcDbLine
 10
-529.5457264700417
 20
130.6127077648575
 30
0.0
 11
-535.0457264700416
 21
130.6127077648575
 31
0.0
  0
SPLINE
  5
84
330
2
100
AcDbEntity
  8
AM_HID
100
AcDbSpline
210
0.0
220
0.0
230
1.0
 70
    24
 71
     1
 72
     4
 73
     2
 74
     0
 42
0.0000000001
 43
0.0000000001
 40
0.75
 40
0.75
 40
1.0
 40
1.0
 10
-535.063186854787
 20
130.1127077648575
 30
0.0
 10
-535.0457264700416
 20
130.6127077648575
 30
0.0
  0
LINE
  5
85
330
2
100
AcDbEntity
  8
AM_VIS
100
AcDbLine
 10
-584.5542812085414
 20
149.0127077648575
 30
0.0
 11
-586.0537671960046
 21
149.0127077648575
 31
0.0
  0
LINE
  5
86
330
2
100
AcDbEntity
  8
AM_VIS
100
AcDbLine
 10
-584.5542812085414
 20
149.0127077648575
 30
0.0
 11
-583.9902556935469
 21
127.4734423423969
 31
0.0
  0
LINE
  5
87
330
2
100
AcDbEntity
  8
AM_VIS
100
AcDbLine
 10
-584.5542812085414
 20
149.0127077648575
 30
0.0
 11
-516.692936261431
 21
149.0127077648575
 31
0.0
  0
LINE
  5
88
330
2
100
AcDbEntity
  8
AM_VIS
100
AcDbLine
 10
-517.2569617764254
 20
127.4734423423969
 30
0.0
 11
-516.692936261431
 21
149.0127077648575
 31
0.0
  0
LINE
  5
89
330
2
100
AcDbEntity
  8
AM_VIS
100
AcDbLine
 10
-515.1934502739677
 20
149.0127077648575
 30
0.0
 11
-516.692936261431
 21
149.0127077648575
 31
0.0
  0
LINE
  5
8A
330
2
100
AcDbEntity
  8
AM_VIS
100
AcDbLine
 10
-515.7574757889619
 20
127.4734423423969
 30
0.0
 11
-515.1934502739677
 21
149.0127077648575
 31
0.0
  0
ELLIPSE
  5
8B
330
2
100
AcDbEntity
  8
AM_VIS
100
AcDbEllipse
 10
-517.2569617764254
 20
127.5127077648576
 30
0.0
 11
1.499485987463365
 21
-0.0392654224606882
 31
0.0
210
0.0
220
0.0
230
-1.0
 40
0.0261679842642326
 41
0.0000000000000214
 42
1.57011109411859
  0
ARC
  5
8C
330
2
100
AcDbEntity
  8
AM_VIS
100
AcDbCircle
 10
-517.2569617764254
 20
127.5127077648575
 30
0.0
 40
1.5
100
AcDbArc
 50
270.0
 51
358.5000000000438
  0
LINE
  5
8D
330
2
100
AcDbEntity
  8
AM_VIS
100
AcDbLine
 10
-583.9902556935469
 20
127.4734423423969
 30
0.0
 11
-517.2569617764254
 21
127.4734423423969
 31
0.0
  0
LINE
  5
8E
330
2
100
AcDbEntity
  8
AM_VIS
100
AcDbLine
 10
-583.9902556935469
 20
126.0127077648576
 30
0.0
 11
-517.2569617764254
 21
126.0127077648576
 31
0.0
  0
LINE
  5
8F
330
2
100
AcDbEntity
  8
AM_VIS
100
AcDbLine
 10
-517.2569617764254
 20
127.4734423423969
 30
0.0
 11
-517.2569617764254
 21
126.0127077648576
 31
0.0
  0
ELLIPSE
  5
90
330
2
100
AcDbEntity
  8
AM_VIS
100
AcDbEllipse
 10
-583.9902556935469
 20
127.5127077648575
 30
0.0
 11
-1.499485987463365
 21
-0.0392654224606879
 31
0.0
210
0.0
220
0.0
230
-1.0
 40
0.0261679842642326
 41
4.713074213060917
 42
6.283185307179524
  0
ARC
  5
91
330
2
100
AcDbEntity
  8
AM_VIS
100
AcDbCircle
 10
-583.9902556935469
 20
127.5127077648575
 30
0.0
 40
1.5
100
AcDbArc
 50
181.4999999999571
 51
270.0
  0
LINE
  5
92
330
2
100
AcDbEntity
  8
AM_VIS
100
AcDbLine
 10
-583.9902556935469
 20
127.4734423423969
 30
0.0
 11
-583.9902556935469
 21
126.0127077648576
 31
0.0
  0
ELLIPSE
  5
93
330
2
100
AcDbEntity
  8
AM_VIS
100
AcDbEllipse
 10
-563.1928403113204
 20
140.8943465452133
 30
0.0
 11
0.9877261387998911
 21
0.1602086208876149
 31
0.0
210
0.0
220
0.0
230
-1.0
 40
0.9990366164970817
 41
1.731747781957615
 42
3.302239452652883
  0
LINE
  5
94
330
2
100
AcDbEntity
  8
AM_VIS
100
AcDbLine
 10
-564.1934502739677
 20
140.8940419819196
 30
0.0
 11
-564.125331170438
 21
140.9620988235792
 31
0.0
  0
LINE
  5
95
330
2
100
AcDbEntity
  8
AM_VIS
100
AcDbLine
 10
-564.1934502739677
 20
141.031498128072
 30
0.0
 11
-564.1934502739677
 21
140.8940419819196
 31
0.0
  0
ELLIPSE
  5
96
330
2
100
AcDbEntity
  8
AM_VIS
100
AcDbEllipse
 10
-563.1928403113204
 20
141.0293635834117
 30
0.0
 11
0.5515481095633566
 21
-0.8368127041807003
 31
0.0
210
0.0
220
0.0
230
-1.0
 40
0.997683503117947
 41
2.154612339379207
 42
3.723277370915308
  0
LINE
  5
97
330
2
100
AcDbEntity
  8
AM_VIS
100
AcDbLine
 10
-564.1934502739677
 20
141.031498128072
 30
0.0
 11
-564.125330430679
 21
140.963315965276
 31
0.0
  0
LINE
  5
98
330
2
100
AcDbEntity
  8
AM_VIS
100
AcDbLine
 10
-526.5539672323635
 20
142.0308889550911
 30
0.0
 11
-563.1949729049751
 21
142.0308889550911
 31
0.0
  0
LINE
  5
99
330
2
100
AcDbEntity
  8
AM_VIS
100
AcDbLine
 10
-563.1949729049751
 20
142.0308889550911
 30
0.0
 11
-563.12685403336
 21
141.9627077648575
 31
0.0
  0
ELLIPSE
  5
9A
330
2
100
AcDbEntity
  8
AM_VIS
100
AcDbEllipse
 10
-526.5560998260183
 20
141.0293635834117
 30
0.0
 11
-0.5515481095633982
 21
-0.8368127041806733
 31
0.0
210
0.0
220
0.0
230
-1.0
 40
0.9976835031179462
 41
2.55990793626423
 42
4.128572967800351
  0
LINE
  5
9B
330
2
100
AcDbEntity
  8
AM_VIS
100
AcDbLine
 10
-526.6220861039787
 20
141.9627077648575
 30
0.0
 11
-526.5539672323634
 21
142.0308889550911
 31
0.0
  0
ELLIPSE
  5
9C
330
2
100
AcDbEntity
  8
AM_VIS
100
AcDbEllipse
 10
-563.1247214397052
 20
140.9624031551703
 30
0.0
 11
0.9877261387998911
 21
0.1602086208876148
 31
0.0
210
0.0
220
0.0
230
-1.0
 40
0.9990366164970815
 41
1.731747781957624
 42
3.303001150787736
  0
ELLIPSE
  5
9D
330
2
100
AcDbEntity
  8
AM_VIS
100
AcDbEllipse
 10
-526.6242186976334
 20
140.9611823931783
 30
0.0
 11
-0.5515481095633982
 21
-0.8368127041806733
 31
0.0
210
0.0
220
0.0
230
-1.0
 40
0.9976835031179462
 41
2.559907936264232
 42
4.128574663834484
  0
LINE
  5
9E
330
2
100
AcDbEntity
  8
AM_VIS
100
AcDbLine
 10
-563.5577052020803
 20
141.9627077648575
 30
0.0
 11
-526.6220861039787
 21
141.9627077648575
 31
0.0
  0
ELLIPSE
  5
9F
330
2
100
AcDbEntity
  8
AM_VIS
100
AcDbEllipse
 10
-563.1247214397052
 20
140.9611823931783
 30
0.0
 11
0.5515481095633566
 21
-0.8368127041807003
 31
0.0
210
0.0
220
0.0
230
-1.0
 40
0.997683503117947
 41
2.15415615448907
 42
3.723277370915304
  0
LINE
  5
A0
330
2
100
AcDbEntity
  8
AM_HID
100
AcDbLine
 10
-517.9875794296171
 20
128.2548546803654
 30
0.0
 11
-517.4440159168175
 21
149.0127077648575
 31
0.0
  0
LINE
  5
A1
330
2
100
AcDbEntity
  8
AM_HID
100
AcDbLine
 10
-517.6876822321245
 20
128.2548546803654
 30
0.0
 11
-517.1441187193249
 21
149.0127077648575
 31
0.0
  0
LINE
  5
A2
330
2
100
AcDbEntity
  8
AM_HID
100
AcDbLine
 10
-517.9006175631513
 20
131.573177613868
 30
0.0
 11
-517.9875794296171
 21
128.2522379158471
 31
0.0
  0
LINE
  5
A3
330
2
100
AcDbEntity
  8
AM_HID
100
AcDbLine
 10
-517.9875794296171
 20
128.2522379158471
 30
0.0
 11
-532.2957264700419
 21
128.2522379158471
 31
0.0
  0
ELLIPSE
  5
A4
330
2
100
AcDbEntity
  8
AM_HID
100
AcDbEllipse
 10
-517.9875794296171
 20
128.2627077648575
 30
0.0
 11
0.299897197492632
 21
-0.0078530844921359
 31
0.0
210
0.0
220
0.0
230
-1.0
 40
0.0261679842642323
 41
0.000000000000004
 42
1.570111094118744
  0
ARC
  5
A5
330
2
100
AcDbEntity
  8
AM_HID
100
AcDbCircle
 10
-517.9875794296171
 20
128.2627077648575
 30
0.0
 40
0.2999999999999619
100
AcDbArc
 50
269.999999999987
 51
358.5000000000495
  0
LINE
  5
A6
330
2
100
AcDbEntity
  8
AM_HID
100
AcDbLine
 10
-517.9875794296171
 20
128.2548546803654
 30
0.0
 11
-583.2596380403551
 21
128.2548546803654
 31
0.0
  0
LINE
  5
A7
330
2
100
AcDbEntity
  8
AM_HID
100
AcDbLine
 10
-517.9875794296171
 20
128.2548546803654
 30
0.0
 11
-517.9875794296171
 21
127.9627077648576
 31
0.0
  0
LINE
  5
A8
330
2
100
AcDbEntity
  8
AM_HID
100
AcDbLine
 10
-517.9875794296171
 20
127.9627077648575
 30
0.0
 11
-583.2596380403551
 21
127.9627077648575
 31
0.0
  0
LINE
  5
A9
330
2
100
AcDbEntity
  8
AM_HID
100
AcDbLine
 10
-583.2596380403551
 20
128.2548546803654
 30
0.0
 11
-583.2596380403551
 21
127.9627077648576
 31
0.0
  0
LINE
  5
AA
330
2
100
AcDbEntity
  8
AM_HID
100
AcDbLine
 10
-583.2596380403551
 20
128.2548546803654
 30
0.0
 11
-583.8032015531548
 21
149.0127077648575
 31
0.0
  0
ELLIPSE
  5
AB
330
2
100
AcDbEntity
  8
AM_HID
100
AcDbEllipse
 10
-583.2596380403551
 20
128.2627077648575
 30
0.0
 11
-0.299897197492632
 21
-0.0078530844921365
 31
0.0
210
0.0
220
0.0
230
-1.0
 40
0.0261679842642324
 41
4.713074213060878
 42
6.283185307179476
  0
LINE
  5
AC
330
2
100
AcDbEntity
  8
AM_HID
100
AcDbLine
 10
-583.5595352378478
 20
128.2548546803654
 30
0.0
 11
-584.1030987506475
 21
149.0127077648575
 31
0.0
  0
LINE
  5
AD
330
2
100
AcDbEntity
  8
AM_HID
100
AcDbLine
 10
-585.1925065150003
 20
142.837979275387
 30
0.0
 11
-583.9422650883732
 21
142.8707179993263
 31
0.0
  0
LINE
  5
AE
330
2
100
AcDbEntity
  8
AM_HID
100
AcDbLine
 10
-585.354197470932
 20
149.0127077648575
 30
0.0
 11
-585.1925065150003
 21
142.837979275387
 31
0.0
  0
LINE
  5
AF
330
2
100
AcDbEntity
  8
AM_HID
100
AcDbLine
 10
-585.0354448251575
 20
136.8400353255335
 30
0.0
 11
-585.1925065150003
 21
142.837979275387
 31
0.0
  0
SPLINE
  5
B0
330
2
100
AcDbEntity
  8
AM_HID
100
AcDbSpline
210
0.0
220
0.0
230
1.0
 70
    28
 71
     2
 72
     8
 73
     5
 74
     0
 42
0.0000000001
 43
0.0000000001
 40
0.0
 40
0.0
 40
0.0
 40
0.4809898398576044
 40
0.4809898398576044
 40
0.9999999999999998
 40
0.9999999999999998
 40
0.9999999999999998
 10
-532.2957264700419
 20
128.2522379158471
 30
0.0
 41
1.0
 10
-532.295726470042
 20
128.1364281927106
 30
0.0
 41
0.8650052955103248
 10
-532.2957264700419
 20
128.0534086088536
 30
0.0
 41
0.8598727536088766
 10
-532.295726470042
 20
127.9627077648576
 30
0.0
 41
0.8543345048279942
 10
-532.2957264700419
 20
127.9627077648576
 30
0.0
 41
1.0
  0
SPLINE
  5
B1
330
2
100
AcDbEntity
  8
AM_HID
100
AcDbSpline
210
0.0
220
0.0
230
1.0
 70
    28
 71
     2
 72
     6
 73
     3
 74
     0
 42
0.0000000001
 43
0.0000000001
 40
2.0
 40
2.0
 40
2.0
 40
58.89672715601634
 40
58.89672715601634
 40
58.89672715601634
 10
-532.2957264700419
 20
128.2522379158471
 30
0.0
 41
1.0
 10
-548.6856158543787
 20
128.2522379158471
 30
0.0
 41
0.7071067811865471
 10
-548.6856158543787
 20
128.2522379158471
 30
0.0
 41
1.0
  0
LINE
  5
B2
330
2
100
AcDbEntity
  8
AM_HID
100
AcDbLine
 10
-532.2957264700419
 20
131.573177613868
 30
0.0
 11
-532.2957264700419
 21
128.2522379158471
 31
0.0
  0
SPLINE
  5
B3
330
2
100
AcDbEntity
  8
AM_HID
100
AcDbSpline
210
0.0
220
0.0
230
1.0
 70
    28
 71
     2
 72
     8
 73
     5
 74
     0
 42
0.0000000001
 43
0.0000000001
 40
0.0
 40
0.0
 40
0.0
 40
0.5190101601423805
 40
0.5190101601423805
 40
1.0
 40
1.0
 40
1.0
 10
-532.2957264700419
 20
131.8627077648575
 30
0.0
 41
1.0
 10
-532.2957264700419
 20
131.8627077648575
 30
0.0
 41
0.854334504827972
 10
-532.2957264700419
 20
131.7720069208615
 30
0.0
 41
0.8598727536088508
 10
-532.2957264700419
 20
131.6889873370045
 30
0.0
 41
0.865005295510296
 10
-532.2957264700419
 20
131.5731776138679
 30
0.0
 41
1.0
  0
SPLINE
  5
B4
330
2
100
AcDbEntity
  8
AM_HID
100
AcDbSpline
210
0.0
220
0.0
230
1.0
 70
    24
 71
     1
 72
     4
 73
     2
 74
     0
 42
0.0000000001
 43
0.0000000001
 40
0.3899999999999955
 40
0.3899999999999955
 40
0.5549999999999999
 40
0.5549999999999999
 10
-532.2957264700418
 20
127.9627077648576
 30
0.0
 10
-532.2957264700418
 20
126.3127077648576
 30
0.0
  0
SPLINE
  5
B5
330
2
100
AcDbEntity
  8
AM_HID
100
AcDbSpline
210
0.0
220
0.0
230
1.0
 70
    24
 71
     1
 72
     4
 73
     2
 74
     0
 42
0.0000000001
 43
0.0000000001
 40
0.0
 40
0.0
 40
1.0
 40
1.0
 10
-532.2957264700416
 20
134.3627077648575
 30
0.0
 10
-532.2957264700416
 20
131.8627077648575
 30
0.0
  0
SPLINE
  5
B6
330
2
100
AcDbEntity
  8
AM_HID
100
AcDbSpline
210
0.0
220
0.0
230
1.0
 70
    28
 71
     2
 72
     6
 73
     3
 74
     0
 42
0.0000000001
 43
0.0000000001
 40
0.7559830641434214
 40
0.7559830641434214
 40
0.7559830641434214
 40
1.0
 40
1.0
 40
1.0
 10
-536.5739093005654
 20
134.3627077648576
 30
0.0
 41
0.8038475772937669
 10
-536.5739093005734
 20
134.3627077648575
 30
0.0
 41
0.6339745962151318
 10
-532.2957264700416
 20
134.3627077648575
 30
0.0
 41
1.0
  0
SPLINE
  5
B7
330
2
100
AcDbEntity
  8
AM_HID
100
AcDbSpline
210
0.0
220
0.0
230
1.0
 70
    28
 71
     2
 72
     6
 73
     3
 74
     0
 42
0.0000000001
 43
0.0000000001
 40
0.0
 40
0.0
 40
0.0
 40
0.2440169358566472
 40
0.2440169358566472
 40
0.2440169358566472
 10
-532.2957264700416
 20
134.3627077648575
 30
0.0
 41
1.0
 10
-528.0175436395081
 20
134.3627077648575
 30
0.0
 41
0.6339745962150288
 10
-528.0175436395178
 20
134.3627077648576
 30
0.0
 41
0.8038475772938625
  0
SPLINE
  5
B8
330
2
100
AcDbEntity
  8
AM_HID
100
AcDbSpline
210
0.0
220
0.0
230
1.0
 70
    24
 71
     1
 72
     4
 73
     2
 74
     0
 42
0.0000000001
 43
0.0000000001
 40
0.009999999850988
 40
0.009999999850988
 40
0.034999999478459
 40
0.034999999478459
 10
-533.6457264700418
 20
130.6127077648575
 30
0.0
 10
-533.6457264700418
 20
131.8627077648575
 30
0.0
  0
ARC
  5
B9
330
2
100
AcDbEntity
  8
AM_HID
100
AcDbCircle
 10
-583.2596380403551
 20
128.2627077648575
 30
0.0
 40
0.2999999999999581
100
AcDbArc
 50
181.4999999999571
 51
270.0
  0
ELLIPSE
  5
BA
330
2
100
AcDbEntity
  8
AM_VIS
100
AcDbEllipse
 10
-563.1247214397052
 20
140.9624031551703
 30
0.0
 11
0.9877261387998998
 21
0.1602086208875505
 31
0.0
210
0.0
220
0.0
230
-1.0
 40
0.9990366164970819
 41
1.73174778195755
 42
3.303456468982579
  0
LINE
  5
BB
330
2
100
AcDbEntity
  8
AM_HID
100
AcDbLine
 10
-564.1253314023526
 20
140.9620985918766
 30
0.0
 11
-564.1934502739677
 21
140.8940419819196
 31
0.0
  0
LINE
  5
BC
330
2
100
AcDbEntity
  8
AM_VIS
100
AcDbLine
 10
-564.1253300602076
 20
140.9620999327949
 30
0.0
 11
-564.1253314023526
 21
140.9620985918766
 31
0.0
  0
ELLIPSE
  5
BD
330
2
100
AcDbEntity
  8
AM_VIS
100
AcDbEllipse
 10
-563.1247214397052
 20
140.9611823931782
 30
0.0
 11
0.5515481095633819
 21
-0.8368127041806832
 31
0.0
210
0.0
220
0.0
230
-1.0
 40
0.997683503117947
 41
2.154610643345116
 42
3.723277370915333
  0
LINE
  5
BE
330
2
100
AcDbEntity
  8
AM_VIS
100
AcDbLine
 10
-564.125330430679
 20
140.963315965276
 30
0.0
 11
-564.1253314023526
 21
140.9633169378385
 31
0.0
  0
LINE
  5
BF
330
2
100
AcDbEntity
  8
AM_HID
100
AcDbLine
 10
-564.1253314023526
 20
140.9633169378385
 30
0.0
 11
-564.1934502739677
 21
141.031498128072
 31
0.0
  0
SPLINE
  5
C0
330
2
100
AcDbEntity
  8
AM_HID
100
AcDbSpline
210
0.0
220
0.0
230
1.0
 70
     8
 71
     3
 72
    16
 73
    12
 74
     0
 42
0.0000000001
 43
0.0000000001
 40
0.0
 40
0.0
 40
0.0
 40
0.0
 40
0.1097027033274516
 40
0.2257450198360733
 40
0.3466094476645198
 40
0.4630165349201348
 40
0.5800359895893119
 40
0.6957063581862281
 40
0.8013113540904562
 40
0.9028505684159423
 40
1.0
 40
1.0
 40
1.0
 40
1.0
 10
-526.55396788194
 20
142.0308889550911
 30
0.0
 10
-526.4967397255419
 20
142.0307820811379
 30
0.0
 10
-526.3784770977073
 20
142.0200866575465
 30
0.0
 10
-526.2029136961055
 20
141.9722534077919
 30
0.0
 10
-526.0358247315743
 20
141.8911999046198
 30
0.0
 10
-525.8862764400126
 20
141.7804793000717
 30
0.0
 10
-525.7611843509769
 20
141.6464176738632
 30
0.0
 10
-525.6654855451208
 20
141.4967100467743
 30
0.0
 10
-525.6004044243025
 20
141.3403926860546
 30
0.0
 10
-525.5631848916359
 20
141.1851560274606
 30
0.0
 10
-525.5561742968502
 20
141.0811770526017
 30
0.0
 10
-525.5560990360971
 20
141.0304319129162
 30
0.0
  0
SPLINE
  5
C1
330
2
100
AcDbEntity
  8
AM_VIS
100
AcDbSpline
210
0.0
220
0.0
230
1.0
 70
     8
 71
     3
 72
    16
 73
    12
 74
     0
 42
0.0000000001
 43
0.0000000001
 40
0.0
 40
0.0
 40
0.0
 40
0.0
 40
0.1097026420003507
 40
0.2257448065985961
 40
0.3466089879239094
 40
0.463015757400279
 40
0.580034816177859
 40
0.6957047197021654
 40
0.801309227355804
 40
0.902847914380171
 40
1.0
 40
1.0
 40
1.0
 40
1.0
 10
-526.6220867535553
 20
141.9627077648575
 30
0.0
 10
-526.5648583111706
 20
141.9626010126871
 30
0.0
 10
-526.4465957615816
 20
141.9519061632174
 30
0.0
 10
-526.2710318873295
 20
141.9040734838844
 30
0.0
 10
-526.103942605886
 20
141.8230206101997
 30
0.0
 10
-525.9543939443581
 20
141.7123006003765
 30
0.0
 10
-525.8293015653594
 20
141.5782395573524
 30
0.0
 10
-525.7336022498089
 20
141.4285325137635
 30
0.0
 10
-525.6685213822298
 20
141.2722156580264
 30
0.0
 10
-525.6312991190907
 20
141.1169780784202
 30
0.0
 10
-525.6242932788018
 20
141.0129973143613
 30
0.0
 10
-525.6242179077124
 20
140.9622507226827
 30
0.0
  0
SPLINE
  5
C2
330
2
100
AcDbEntity
  8
AM_HID
100
AcDbSpline
210
0.0
220
0.0
230
1.0
 70
     8
 71
     3
 72
    13
 73
     9
 74
     0
 42
0.0000000001
 43
0.0000000001
 40
0.0
 40
0.0
 40
0.0
 40
0.0
 40
0.1666999610793863
 40
0.3333666277447076
 40
0.5000332944100156
 40
0.6666999610753324
 40
0.8333666277406493
 40
1.0
 40
1.0
 40
1.0
 40
1.0
 10
-526.55396788194
 20
142.0308889550911
 30
0.0
 10
-526.557753019689
 20
142.0271003545049
 30
0.0
 10
-526.5653192105117
 20
142.0195239059668
 30
0.0
 10
-526.576674473303
 20
142.0081596192336
 30
0.0
 10
-526.5880271647081
 20
141.9967960869758
 30
0.0
 10
-526.5993807639947
 20
141.9854325558226
 30
0.0
 10
-526.6107317911566
 20
141.9740697791435
 30
0.0
 10
-526.6183031277912
 20
141.9664948520753
 30
0.0
 10
-526.6220867535553
 20
141.9627077648575
 30
0.0
  0
SPLINE
  5
C3
330
2
100
AcDbEntity
  8
AM_HID
100
AcDbSpline
210
0.0
220
0.0
230
1.0
 70
     8
 71
     3
 72
    13
 73
     9
 74
     0
 42
0.0000000001
 43
0.0000000001
 40
0.0
 40
0.0
 40
0.0
 40
0.0
 40
0.1666599005313657
 40
0.3333189134398855
 40
0.4999779263484009
 40
0.6666369392569161
 40
0.8332959521654357
 40
1.0
 40
1.0
 40
1.0
 40
1.0
 10
-525.5560990360971
 20
141.0304319129162
 30
0.0
 10
-525.5598832709368
 20
141.0266442160655
 30
0.0
 10
-525.5674549538189
 20
141.0206274786885
 30
0.0
 10
-525.5788062940381
 20
141.0086268129282
 30
0.0
 10
-525.5901593840381
 20
140.9974763005085
 30
0.0
 10
-525.6015115683007
 20
140.985900814446
 30
0.0
 10
-525.6128666282825
 20
140.9751741248107
 30
0.0
 10
-525.6204326704494
 20
140.9660394228737
 30
0.0
 10
-525.6242179077124
 20
140.9622507226827
 30
0.0
  0
LINE
  5
C4
330
2
100
AcDbEntity
  8
AM_HID
100
AcDbLine
 10
-525.5560990360971
 20
141.0304319129162
 30
0.0
 11
-525.5560990360971
 21
140.8941941127256
 31
0.0
  0
SPLINE
  5
C5
330
2
100
AcDbEntity
  8
AM_VIS
100
AcDbSpline
210
0.0
220
0.0
230
1.0
 70
     8
 71
     3
 72
    16
 73
    12
 74
     0
 42
0.0000000001
 43
0.0000000001
 40
0.0
 40
0.0
 40
0.0
 40
0.0
 40
0.1098198201494443
 40
0.2259438032061424
 40
0.346864424102579
 40
0.4633145426748378
 40
0.5803795262170543
 40
0.6961050103612161
 40
0.8017703453601267
 40
0.9033724887959639
 40
1.0
 40
1.0
 40
1.0
 40
1.0
 10
-526.6239138557097
 20
139.9627077648575
 30
0.0
 10
-526.5664983540049
 20
139.9627406396113
 30
0.0
 10
-526.4480993710045
 20
139.9729419979259
 30
0.0
 10
-526.2720774891582
 20
140.0204936661608
 30
0.0
 10
-526.1046105143512
 20
140.1013446498285
 30
0.0
 10
-525.9547303814327
 20
140.2120504522434
 30
0.0
 10
-525.829398340474
 20
140.3462274427604
 30
0.0
 10
-525.733561971431
 20
140.4961404172679
 30
0.0
 10
-525.6684249928577
 20
140.6527196996679
 30
0.0
 10
-525.6313204540316
 20
140.8078725613072
 30
0.0
 10
-525.6242659392986
 20
140.9117976008775
 30
0.0
 10
-525.6242179077124
 20
140.9622507226827
 30
0.0
  0
SPLINE
  5
C6
330
2
100
AcDbEntity
  8
AM_HID
100
AcDbSpline
210
0.0
220
0.0
230
1.0
 70
     8
 71
     3
 72
    13
 73
     9
 74
     0
 42
0.0000000001
 43
0.0000000001
 40
0.0
 40
0.0
 40
0.0
 40
0.0
 40
0.1666666788016061
 40
0.333333339400802
 40
0.4999999999999978
 40
0.6666666605991935
 40
0.8333333211983891
 40
1.0
 40
1.0
 40
1.0
 40
1.0
 10
-525.6242179077124
 20
140.9622507226827
 30
0.0
 10
-525.6204335255427
 20
140.9584697994944
 30
0.0
 10
-525.6128648313017
 20
140.9506851699251
 30
0.0
 10
-525.6015116571376
 20
140.9394335399517
 30
0.0
 10
-525.5901585212668
 20
140.9280603919428
 30
0.0
 10
-525.5788053668854
 20
140.9167480035852
 30
0.0
 10
-525.5674522482536
 20
140.9053140946511
 30
0.0
 10
-525.5598834182668
 20
140.897975035914
 30
0.0
 10
-525.5560990360971
 20
140.8941941127256
 30
0.0
  0
SPLINE
  5
C7
330
2
100
AcDbEntity
  8
AM_HID
100
AcDbSpline
210
0.0
220
0.0
230
1.0
 70
     8
 71
     3
 72
    16
 73
    12
 74
     0
 42
0.0000000001
 43
0.0000000001
 40
0.0
 40
0.0
 40
0.0
 40
0.0
 40
0.1098198201494517
 40
0.2259438032061512
 40
0.3468644241025848
 40
0.4633145426748487
 40
0.5803795262170628
 40
0.6961050103612224
 40
0.8017703453601319
 40
0.9033724887959689
 40
1.0
 40
1.0
 40
1.0
 40
1.0
 10
-526.5557949840945
 20
139.8946511549005
 30
0.0
 10
-526.4983794823897
 20
139.8946840296543
 30
0.0
 10
-526.3799804993893
 20
139.9048853879688
 30
0.0
 10
-526.2039586175431
 20
139.9524370562038
 30
0.0
 10
-526.0364916427359
 20
140.0332880398715
 30
0.0
 10
-525.8866115098173
 20
140.1439938422863
 30
0.0
 10
-525.7612794688587
 20
140.2781708328034
 30
0.0
 10
-525.6654430998159
 20
140.4280838073109
 30
0.0
 10
-525.6003061212425
 20
140.5846630897108
 30
0.0
 10
-525.5632015824164
 20
140.7398159513502
 30
0.0
 10
-525.5561470676834
 20
140.8437409909204
 30
0.0
 10
-525.5560990360971
 20
140.8941941127256
 30
0.0
  0
ELLIPSE
  5
C8
330
2
100
AcDbEntity
  8
AM_VIS
100
AcDbEllipse
 10
-563.1928403113204
 20
135.8943465452133
 30
0.0
 11
-0.9877261387998869
 21
-0.1602086208876374
 31
0.0
210
0.0
220
0.0
230
-0.9999999999999998
 40
0.999036616497082
 41
4.873366898704209
 42
6.443832106242696
  0
ELLIPSE
  5
C9
330
2
100
AcDbEntity
  8
AM_HID
100
AcDbEllipse
 10
-563.1928403113204
 20
135.8943465452133
 30
0.0
 11
-0.9877261387998869
 21
-0.1602086208876374
 31
0.0
210
0.0
220
0.0
230
-0.9999999999999998
 40
0.999036616497082
 41
4.873340435547434
 42
4.873366898704209
  0
ELLIPSE
  5
CA
330
2
100
AcDbEntity
  8
AM_VIS
100
AcDbEllipse
 10
-563.1247214397052
 20
135.9624031551703
 30
0.0
 11
-0.9877261387998846
 21
-0.1602086208876518
 31
0.0
210
0.0
220
0.0
230
-1.0
 40
0.9990366164970815
 41
4.873340435547445
 42
6.445049122572463
  0
LINE
  5
CB
330
2
100
AcDbEntity
  8
AM_HID
100
AcDbLine
 10
-563.1931451532441
 20
134.8946511549005
 30
0.0
 11
-563.1250262816289
 21
134.9627077648575
 31
0.0
  0
ELLIPSE
  5
CC
330
2
100
AcDbEntity
  8
AM_VIS
100
AcDbEllipse
 10
-526.6242186976334
 20
135.9624031551703
 30
0.0
 11
0.9877261387998757
 21
-0.1602086208877054
 31
0.0
210
0.0
220
0.0
230
-1.0
 40
0.9990366164970819
 41
6.121322625334128
 42
7.693030178811666
  0
ELLIPSE
  5
CD
330
2
100
AcDbEntity
  8
AM_HID
100
AcDbEllipse
 10
-526.5560998260183
 20
135.8943465452133
 30
0.0
 11
0.9877261387998782
 21
-0.1602086208876914
 31
0.0
210
0.0
220
0.0
230
-0.9999999999999998
 40
0.999036616497082
 41
6.122538508116441
 42
7.693030178811687
  0
LINE
  5
CE
330
2
100
AcDbEntity
  8
AM_HID
100
AcDbLine
 10
-525.555489863371
 20
136.0314981280719
 30
0.0
 11
-525.555489863371
 21
135.8940419819196
 31
0.0
  0
LINE
  5
CF
330
2
100
AcDbEntity
  8
AM_HID
100
AcDbLine
 10
-525.623610724519
 20
135.962100579591
 30
0.0
 11
-525.555489863371
 21
135.8940419819196
 31
0.0
  0
ELLIPSE
  5
D0
330
2
100
AcDbEntity
  8
AM_VIS
100
AcDbEllipse
 10
-526.6242186976334
 20
135.9611823931782
 30
0.0
 11
0.5515481095632929
 21
0.8368127041807429
 31
0.0
210
0.0
220
0.0
230
-1.0
 40
0.9976835031179465
 41
5.701500589854152
 42
7.270168448115659
  0
ELLIPSE
  5
D1
330
2
100
AcDbEntity
  8
AM_HID
100
AcDbEllipse
 10
-526.5560998260183
 20
136.0293635834117
 30
0.0
 11
0.5515481095632929
 21
0.8368127041807429
 31
0.0
210
0.0
220
0.0
230
-1.0
 40
0.9976835031179465
 41
5.701500589854152
 42
7.270165621390272
  0
LINE
  5
D2
330
2
100
AcDbEntity
  8
AM_HID
100
AcDbLine
 10
-525.6236103544421
 20
135.9633153169009
 30
0.0
 11
-525.555489863371
 21
136.0314981280719
 31
0.0
  0
ELLIPSE
  5
D3
330
2
100
AcDbEntity
  8
AM_HID
100
AcDbEllipse
 10
-563.1928403113204
 20
136.0293635834117
 30
0.0
 11
-0.5515481095633433
 21
0.8368127041807094
 31
0.0
210
0.0
220
0.0
230
-0.9999999999999998
 40
0.9976835031179469
 41
0.5816575343864516
 42
0.5816847173254982
  0
ELLIPSE
  5
D4
330
2
100
AcDbEntity
  8
AM_VIS
100
AcDbEllipse
 10
-563.1928403113204
 20
136.0293635834117
 30
0.0
 11
-0.5515481095633433
 21
0.8368127041807094
 31
0.0
210
0.0
220
0.0
230
-0.9999999999999998
 40
0.9976835031179469
 41
5.296204992968977
 42
6.864842841566037
  0
LINE
  5
D5
330
2
100
AcDbEntity
  8
AM_HID
100
AcDbLine
 10
-563.1949729049751
 20
137.0308889550911
 30
0.0
 11
-563.1268542130236
 21
136.9627079446855
 31
0.0
  0
ELLIPSE
  5
D6
330
2
100
AcDbEntity
  8
AM_VIS
100
AcDbEllipse
 10
-563.1247214397052
 20
135.9611823931782
 30
0.0
 11
-0.5515481095633433
 21
0.8368127041807094
 31
0.0
210
0.0
220
0.0
230
-0.9999999999999998
 40
0.9976835031179469
 41
5.29620329693485
 42
6.86487002450508
  0
LINE
  5
D7
330
2
100
AcDbEntity
  8
AM_VIS
100
AcDbLine
 10
-564.1934502739677
 20
135.8940419819196
 30
0.0
 11
-564.1253300602076
 21
135.9620999327949
 31
0.0
  0
LINE
  5
D8
330
2
100
AcDbEntity
  8
AM_HID
100
AcDbLine
 10
-564.1934502739677
 20
135.8940419819196
 30
0.0
 11
-564.1934502739677
 21
136.031498128072
 31
0.0
  0
LINE
  5
D9
330
2
100
AcDbEntity
  8
AM_VIS
100
AcDbLine
 10
-564.1934502739677
 20
136.031498128072
 30
0.0
 11
-564.125330430679
 21
135.963315965276
 31
0.0
  0
ELLIPSE
  5
DA
330
2
100
AcDbEntity
  8
AM_HID
100
AcDbEllipse
 10
-517.9875794296171
 20
128.2627077648575
 30
0.0
 11
0.2998971974926332
 21
-0.0078530844921333
 31
0.0
210
0.0
220
0.0
230
-1.0
 40
0.0348875520741292
 41
0.0000000000001257
 42
1.569882764346882
  0
ELLIPSE
  5
DB
330
2
100
AcDbEntity
  8
AM_VIS
100
AcDbEllipse
 10
-526.6242186976334
 20
140.9624031551703
 30
0.0
 11
-0.9877261387999059
 21
0.1602086208875162
 31
0.0
210
0.0
220
0.0
230
-1.0
 40
0.9990366164970819
 41
2.979728838197052
 42
4.551437525222076
  0
ELLIPSE
  5
DC
330
2
100
AcDbEntity
  8
AM_VIS
100
AcDbEllipse
 10
-526.5560998260183
 20
140.8943465452133
 30
0.0
 11
-0.9877261387999059
 21
0.1602086208875162
 31
0.0
210
0.0
220
0.0
230
-1.0
 40
0.9990366164970819
 41
2.980945854526826
 42
4.55143752522207
  0
LINE
  5
DD
330
2
100
AcDbEntity
  8
AM_VIS
100
AcDbLine
 10
-525.6236100771311
 20
140.9620999327949
 30
0.0
 11
-525.555489863371
 21
140.8940419819196
 31
0.0
  0
LINE
  5
DE
330
2
100
AcDbEntity
  8
AM_VIS
100
AcDbLine
 10
-525.555489863371
 20
140.8940419819196
 30
0.0
 11
-525.555489863371
 21
141.0314981280719
 31
0.0
  0
LINE
  5
DF
330
2
100
AcDbEntity
  8
AM_VIS
100
AcDbLine
 10
-525.6236097066597
 20
140.9633159652759
 30
0.0
 11
-525.5554898633708
 21
141.0314981280719
 31
0.0
  0
LINE
  5
E0
330
2
100
AcDbEntity
  8
AM_VIS
100
AcDbLine
 10
-563.1931451532442
 20
139.8946511549005
 30
0.0
 11
-563.1250262816289
 21
139.9627077648575
 31
0.0
  0
LINE
  5
E1
330
2
100
AcDbEntity
  8
AM_VIS
100
AcDbLine
 10
-563.1931451532441
 20
139.8946511549005
 30
0.0
 11
-526.5557949840945
 21
139.8946511549005
 31
0.0
  0
LINE
  5
E2
330
2
100
AcDbEntity
  8
AM_VIS
100
AcDbLine
 10
-526.6239138557097
 20
139.9627077648575
 30
0.0
 11
-526.5557949840945
 21
139.8946511549005
 31
0.0
  0
LINE
  5
E3
330
2
100
AcDbEntity
  8
AM_VIS
100
AcDbLine
 10
-563.5560026861701
 20
139.9627077648575
 30
0.0
 11
-526.6239138557097
 21
139.9627077648575
 31
0.0
  0
ELLIPSE
  5
E4
330
2
100
AcDbEntity
  8
AM_VIS
100
AcDbEllipse
 10
-563.1247209590894
 20
135.9611823931782
 30
0.0
 11
-0.5516876578628205
 21
0.8367213466850142
 31
0.0
210
0.0
220
0.0
230
-0.9999999999999998
 40
0.997682922933993
 41
5.295154417569002
 42
6.865036026452351
  0
ELLIPSE
  5
E5
330
2
100
AcDbEntity
  8
AM_VIS
100
AcDbEllipse
 10
-563.1928666705054
 20
136.0293635834117
 30
0.0
 11
-0.5516876578628205
 21
0.8367213466850142
 31
0.0
210
0.0
220
0.0
230
-0.9999999999999998
 40
0.997682922933993
 41
5.296371833653955
 42
6.865036026452351
  0
LINE
  5
E6
330
2
100
AcDbEntity
  8
AM_VIS
100
AcDbLine
 10
-564.125328669442
 20
135.9633150435201
 30
0.0
 11
-564.1934771137686
 21
136.0314989680871
 31
0.0
  0
LINE
  5
E7
330
2
100
AcDbEntity
  8
AM_VIS
100
AcDbLine
 10
-564.1934771137686
 20
136.0314989680871
 30
0.0
 11
-564.1934771137686
 21
135.8940418620637
 31
0.0
  0
ELLIPSE
  5
E8
330
2
100
AcDbEntity
  8
AM_VIS
100
AcDbEllipse
 10
-563.1247209590894
 20
135.9624031551703
 30
0.0
 11
-0.9877297824297324
 21
-0.1601891990553589
 31
0.0
210
0.0
220
0.0
230
-1.0
 40
0.9990361233786037
 41
4.873320753442066
 42
6.443812338990517
  0
LINE
  5
E9
330
2
100
AcDbEntity
  8
AM_VIS
100
AcDbLine
 10
-564.1253312630395
 20
135.9620986111517
 30
0.0
 11
-564.1934771137686
 21
135.8940418620637
 31
0.0
  0
ELLIPSE
  5
EA
330
2
100
AcDbEntity
  8
AM_VIS
100
AcDbEllipse
 10
-563.1928666705054
 20
135.8943465452133
 30
0.0
 11
-0.9877297824297324
 21
-0.1601891990553589
 31
0.0
210
0.0
220
0.0
230
-1.0
 40
0.9990361233786037
 41
4.873320753442063
 42
6.443812304244909
  0
LINE
  5
EB
330
2
100
AcDbEntity
  8
AM_VIS
100
AcDbLine
 10
-563.125025921125
 20
134.9627077648575
 30
0.0
 11
-563.193171632541
 21
134.8946511549005
 31
0.0
  0
LINE
  5
EC
330
2
100
AcDbEntity
  8
AM_VIS
100
AcDbLine
 10
-563.193171632541
 20
134.8946511549005
 30
0.0
 11
-526.5557950767894
 21
134.8946511549005
 31
0.0
  0
LINE
  5
ED
330
2
100
AcDbEntity
  8
AM_VIS
100
AcDbLine
 10
-563.5560293315758
 20
134.9627077648575
 30
0.0
 11
-526.6239139484047
 21
134.9627077648575
 31
0.0
  0
SPLINE
  5
EE
330
2
100
AcDbEntity
  8
AM_VIS
100
AcDbSpline
210
0.0
220
0.0
230
1.0
 70
     8
 71
     3
 72
    16
 73
    12
 74
     0
 42
0.0000000001
 43
0.0000000001
 40
0.0
 40
0.0
 40
0.0
 40
0.0
 40
0.1098198486952183
 40
0.2259438297831591
 40
0.3468644481198273
 40
0.4633145637185164
 40
0.580379543746477
 40
0.696105023868628
 40
0.8017703546847647
 40
0.9033724936011868
 40
1.0
 40
1.0
 40
1.0
 40
1.0
 10
-526.5557950767894
 20
134.8946511549005
 30
0.0
 10
-526.498379556742
 20
134.8946840277772
 30
0.0
 10
-526.3799805566833
 20
134.9048853990691
 30
0.0
 10
-526.2039586530737
 20
134.952437063456
 30
0.0
 10
-526.0364916732316
 20
135.0332880475539
 30
0.0
 10
-525.8866115349613
 20
135.1439938481099
 30
0.0
 10
-525.7612794888595
 20
135.2781708374443
 30
0.0
 10
-525.6654431147139
 20
135.4280838104951
 30
0.0
 10
-525.6003061311498
 20
135.5846630921314
 30
0.0
 10
-525.5632015874441
 20
135.73981595094
 30
0.0
 10
-525.5561470693437
 20
135.8437409937447
 30
0.0
 10
-525.5560990360971
 20
135.8941941127256
 30
0.0
  0
SPLINE
  5
EF
330
2
100
AcDbEntity
  8
AM_VIS
100
AcDbSpline
210
0.0
220
0.0
230
1.0
 70
     8
 71
     3
 72
    16
 73
    12
 74
     0
 42
0.0000000001
 43
0.0000000001
 40
0.0
 40
0.0
 40
0.0
 40
0.0
 40
0.1098198725557241
 40
0.2259438487760293
 40
0.3468644625536681
 40
0.4633145742703365
 40
0.5803795509207531
 40
0.6961050282519765
 40
0.8017703570302034
 40
0.903372494484565
 40
1.0
 40
1.0
 40
1.0
 40
1.0
 10
-526.6239139484047
 20
134.9627077648575
 30
0.0
 10
-526.5664984159209
 20
134.962740639629
 30
0.0
 10
-526.4480994007735
 20
134.9729419872353
 30
0.0
 10
-526.2720774891888
 20
135.0204936669132
 30
0.0
 10
-526.1046105143432
 20
135.101344649632
 30
0.0
 10
-525.9547303814347
 20
135.2120504522955
 30
0.0
 10
-525.8293983404735
 20
135.3462274427466
 30
0.0
 10
-525.7335619714313
 20
135.4961404172712
 30
0.0
 10
-525.6684249928575
 20
135.652719699667
 30
0.0
 10
-525.6313204540316
 20
135.8078725613074
 30
0.0
 10
-525.6242659392986
 20
135.9117976008775
 30
0.0
 10
-525.6242179077124
 20
135.9622507226826
 30
0.0
  0
SPLINE
  5
F0
330
2
100
AcDbEntity
  8
AM_VIS
100
AcDbSpline
210
0.0
220
0.0
230
1.0
 70
     8
 71
     3
 72
    13
 73
     9
 74
     0
 42
0.0000000001
 43
0.0000000001
 40
0.0
 40
0.0
 40
0.0
 40
0.0
 40
0.1666672339012543
 40
0.3333337867893207
 40
0.5000003396773879
 40
0.6666668925654542
 40
0.8333334454535217
 40
1.0
 40
1.0
 40
1.0
 40
1.0
 10
-526.5557950767894
 20
134.8946511549005
 30
0.0
 10
-526.5595794714256
 20
134.8984320905439
 30
0.0
 10
-526.567148109448
 20
134.9059939465471
 30
0.0
 10
-526.578501317979
 20
134.9173367225113
 30
0.0
 10
-526.5898544369814
 20
134.9286794831167
 30
0.0
 10
-526.6012075930166
 20
134.9400222436769
 30
0.0
 10
-526.6125606750238
 20
134.951365004365
 30
0.0
 10
-526.620129569194
 20
134.9589268446257
 30
0.0
 10
-526.6239139484047
 20
134.9627077648575
 30
0.0
  0
SPLINE
  5
F1
330
2
100
AcDbEntity
  8
AM_VIS
100
AcDbSpline
210
0.0
220
0.0
230
1.0
 70
     8
 71
     3
 72
    13
 73
     9
 74
     0
 42
0.0000000001
 43
0.0000000001
 40
0.0
 40
0.0
 40
0.0
 40
0.0
 40
0.1666666788016096
 40
0.3333333394008047
 40
0.4999999999999998
 40
0.666666660599195
 40
0.83333332119839
 40
1.0
 40
1.0
 40
1.0
 40
1.0
 10
-525.5560990360971
 20
135.8941941127256
 30
0.0
 10
-525.5598834182668
 20
135.8979750359139
 30
0.0
 10
-525.5674522482536
 20
135.905314094651
 30
0.0
 10
-525.5788053668854
 20
135.9167480035852
 30
0.0
 10
-525.5901585212668
 20
135.9280603919428
 30
0.0
 10
-525.6015116571376
 20
135.9394335399516
 30
0.0
 10
-525.6128648313016
 20
135.9506851699251
 30
0.0
 10
-525.6204335255427
 20
135.9584697994943
 30
0.0
 10
-525.6242179077124
 20
135.9622507226826
 30
0.0
  0
LINE
  5
F2
330
2
100
AcDbEntity
  8
AM_VIS
100
AcDbLine
 10
-525.5560990360971
 20
135.8941941127256
 30
0.0
 11
-525.5560990360971
 21
136.0304319129161
 31
0.0
  0
SPLINE
  5
F3
330
2
100
AcDbEntity
  8
AM_VIS
100
AcDbSpline
210
0.0
220
0.0
230
1.0
 70
     8
 71
     3
 72
    16
 73
    12
 74
     0
 42
0.0000000001
 43
0.0000000001
 40
0.0
 40
0.0
 40
0.0
 40
0.0
 40
0.109702169405768
 40
0.2257441618121835
 40
0.3466082508204415
 40
0.4630150080428023
 40
0.5800341237435879
 40
0.6957041460725759
 40
0.8013088122734318
 40
0.9028476937439686
 40
1.0
 40
1.0
 40
1.0
 40
1.0
 10
-526.6220861039787
 20
136.9627077648575
 30
0.0
 10
-526.5648579634362
 20
136.9626010138681
 30
0.0
 10
-526.4465948522297
 20
136.9519117946907
 30
0.0
 10
-526.2710314705725
 20
136.9040764347106
 30
0.0
 10
-526.1039421083715
 20
136.8230239312563
 30
0.0
 10
-525.954393451702
 20
136.7123033378022
 30
0.0
 10
-525.8293010566789
 20
136.5782418594294
 30
0.0
 10
-525.733601776931
 20
136.4285342556634
 30
0.0
 10
-525.6685210008843
 20
136.2722168293059
 30
0.0
 10
-525.6312988922387
 20
136.1169786343147
 30
0.0
 10
-525.6242931975639
 20
136.0129975436959
 30
0.0
 10
-525.6242179077124
 20
135.9622507226826
 30
0.0
  0
SPLINE
  5
F4
330
2
100
AcDbEntity
  8
AM_VIS
100
AcDbSpline
210
0.0
220
0.0
230
1.0
 70
     8
 71
     3
 72
    13
 73
     9
 74
     0
 42
0.0000000001
 43
0.0000000001
 40
0.0
 40
0.0
 40
0.0
 40
0.0
 40
0.1667040478345655
 40
0.3333630607430829
 40
0.5000220736516001
 40
0.6666810865601163
 40
0.8333400994686336
 40
1.0
 40
1.0
 40
1.0
 40
1.0
 10
-525.6242179077124
 20
135.9622507226826
 30
0.0
 10
-525.6204326704495
 20
135.9660394228737
 30
0.0
 10
-525.6128666282825
 20
135.9751741248106
 30
0.0
 10
-525.6015115683007
 20
135.985900814446
 30
0.0
 10
-525.5901593840381
 20
135.9974763005085
 30
0.0
 10
-525.578806294038
 20
136.0086268129281
 30
0.0
 10
-525.5674549538189
 20
136.0206274786885
 30
0.0
 10
-525.5598832709368
 20
136.0266442160655
 30
0.0
 10
-525.5560990360971
 20
136.0304319129161
 30
0.0
  0
SPLINE
  5
F5
330
2
100
AcDbEntity
  8
AM_VIS
100
AcDbSpline
210
0.0
220
0.0
230
1.0
 70
     8
 71
     3
 72
    16
 73
    12
 74
     0
 42
0.0000000001
 43
0.0000000001
 40
0.0
 40
0.0
 40
0.0
 40
0.0
 40
0.1097022307235021
 40
0.2257443750411999
 40
0.3466087105536436
 40
0.4630157855563586
 40
0.5800352971498963
 40
0.6957057845526539
 40
0.8013109390051154
 40
0.9028503477777006
 40
1.0
 40
1.0
 40
1.0
 40
1.0
 10
-526.5539672323634
 20
137.0308889550911
 30
0.0
 10
-526.496739377972
 20
137.0307820823198
 30
0.0
 10
-526.3784761882645
 20
137.0200922890176
 30
0.0
 10
-526.2029132793735
 20
136.9722563586173
 30
0.0
 10
-526.0358242340535
 20
136.8912032256763
 30
0.0
 10
-525.8862759473584
 20
136.7804820374975
 30
0.0
 10
-525.7611838422962
 20
136.6464199759383
 30
0.0
 10
-525.6654850722428
 20
136.4967117886803
 30
0.0
 10
-525.6004040429586
 20
136.3403938573137
 30
0.0
 10
-525.5631846647775
 20
136.1851565834297
 30
0.0
 10
-525.5561742156144
 20
136.0811772817908
 30
0.0
 10
-525.5560990360971
 20
136.0304319129161
 30
0.0
  0
LINE
  5
F6
330
2
100
AcDbEntity
  8
AM_VIS
100
AcDbLine
 10
-563.1268543930162
 20
136.9627077648575
 30
0.0
 11
-563.1950001044323
 21
137.0308889550911
 31
0.0
  0
LINE
  5
F7
330
2
100
AcDbEntity
  8
AM_VIS
100
AcDbLine
 10
-526.6220861039787
 20
136.9627077648575
 30
0.0
 11
-563.5577325179836
 21
136.9627077648575
 31
0.0
  0
SPLINE
  5
F8
330
2
100
AcDbEntity
  8
AM_VIS
100
AcDbSpline
210
0.0
220
0.0
230
1.0
 70
    24
 71
     3
 72
    13
 73
     9
 74
     0
 42
0.0000000001
 43
0.0000000001
 40
0.0
 40
0.0
 40
0.0
 40
0.0
 40
0.1666666666666653
 40
0.333333333333334
 40
0.4999999999999979
 40
0.6666666666666652
 40
0.8333333333333337
 40
1.0
 40
1.0
 40
1.0
 40
1.0
 10
-526.6220861039787
 20
136.9627077648575
 30
0.0
 10
-526.6183017222223
 20
136.9664956087594
 30
0.0
 10
-526.6107329587096
 20
136.9740712965631
 30
0.0
 10
-526.5993798134402
 20
136.9854348282687
 30
0.0
 10
-526.5880266681711
 20
136.9967983599743
 30
0.0
 10
-526.576673522902
 20
137.0081618916799
 30
0.0
 10
-526.5653203776326
 20
137.0195254233855
 30
0.0
 10
-526.5577516141198
 20
137.0271011111892
 30
0.0
 10
-526.5539672323634
 20
137.0308889550911
 30
0.0
  0
LINE
  5
F9
330
2
100
AcDbEntity
  8
AM_VIS
100
AcDbLine
 10
-526.5539672323634
 20
137.0308889550911
 30
0.0
 11
-563.1950001044324
 21
137.0308889550911
 31
0.0
  0
LINE
  5
FA
330
2
100
AcDbEntity
  8
AM_VIS
100
AcDbLine
 10
-586.0537671960046
 20
149.0127077648575
 30
0.0
 11
-585.4897416810104
 21
127.4734423423969
 31
0.0
  0
CIRCLE
  5
FB
330
2
100
AcDbEntity
  8
AM_VIS
100
AcDbCircle
 10
-532.2957264700418
 20
192.6159630362007
 30
0.0
 40
1.350000000000001
  0
SPLINE
  5
FC
330
2
100
AcDbEntity
  8
AM_HID
100
AcDbSpline
210
0.0
220
0.0
230
1.0
 70
    15
 71
     2
 72
    10
 73
     7
 74
     0
 42
0.0000000001
 43
0.0000000001
 40
0.0
 40
0.0
 40
0.0
 40
0.333333333333333
 40
0.333333333333333
 40
0.666666666666667
 40
0.666666666666667
 40
1.0
 40
1.0
 40
1.0
 10
-532.2957264700418
 20
189.1159630362006
 30
0.0
 41
1.0
 10
-538.3579042965329
 20
189.1159630362006
 30
0.0
 41
0.5
 10
-535.3268153832873
 20
194.3659630362006
 30
0.0
 41
1.0
 10
-532.2957264700418
 20
199.6159630362006
 30
0.0
 41
0.5
 10
-529.2646375567962
 20
194.3659630362006
 30
0.0
 41
1.0
 10
-526.2335486435508
 20
189.1159630362006
 30
0.0
 41
0.5
 10
-532.2957264700418
 20
189.1159630362006
 30
0.0
 41
1.0
  0
SPLINE
  5
FD
330
2
100
AcDbEntity
  8
AM_HID
100
AcDbSpline
210
0.0
220
0.0
230
1.0
 70
    15
 71
     2
 72
    10
 73
     7
 74
     0
 42
0.0000000001
 43
0.0000000001
 40
0.0
 40
0.0
 40
0.0
 40
0.333333333333333
 40
0.333333333333333
 40
0.666666666666667
 40
0.666666666666667
 40
1.0
 40
1.0
 40
1.0
 10
-532.2957264700418
 20
189.0941458667244
 30
0.0
 41
1.0
 10
-526.1957601975405
 20
189.0941458667244
 30
0.0
 41
0.5
 10
-529.2457433337911
 20
194.3768716209388
 30
0.0
 41
1.0
 10
-532.2957264700418
 20
199.6595973751532
 30
0.0
 41
0.5
 10
-535.3457096062925
 20
194.3768716209388
 30
0.0
 41
1.0
 10
-538.3956927425431
 20
189.0941458667244
 30
0.0
 41
0.5
 10
-532.2957264700418
 20
189.0941458667244
 30
0.0
 41
1.0
  0
ARC
  5
FE
330
2
100
AcDbEntity
  8
AM_VIS
100
AcDbCircle
 10
-532.2957264700418
 20
192.6159630362006
 30
0.0
 40
2.767460384745313
100
AcDbArc
 50
283.5549570205868
 51
179.9999999999984
  0
CIRCLE
  5
FF
330
2
100
AcDbEntity
  8
AM_VIS
100
AcDbCircle
 10
-532.2957264700418
 20
192.6159630362006
 30
0.0
 40
2.749999999999939
  0
TEXT
  5
100
330
2
100
AcDbEntity
  8
4
100
AcDbText
 10
-676.8271644992418
 20
397.059659918365
 30
0.0
 40
5.0
  1
TYPE 301
100
AcDbText
  0
LINE
  5
101
330
2
100
AcDbEntity
  8
AM_HID
100
AcDbLine
 10
-628.4471027772258
 20
218.6043123861538
 30
0.0
 11
-628.4471027772258
 21
189.6276136862061
 31
0.0
  0
SPLINE
  5
102
330
2
100
AcDbEntity
  8
AM_HID
100
AcDbSpline
210
0.0
220
0.0
230
1.0
 70
    24
 71
     3
 72
    13
 73
     9
 74
     0
 42
0.0000000001
 43
0.0000000001
 40
0.0
 40
0.0
 40
0.0
 40
0.0
 40
0.1666666666666653
 40
0.333333333333334
 40
0.4999999999999979
 40
0.6666666666666652
 40
0.8333333333333337
 40
1.0
 40
1.0
 40
1.0
 40
1.0
 10
-618.9578373547651
 20
170.952013375439
 30
0.0
 10
-618.9540495108633
 20
170.8435437180692
 30
0.0
 10
-618.9464738230594
 20
170.6266044033295
 30
0.0
 10
-618.935110291354
 20
170.30119543122
 30
0.0
 10
-618.9237467596483
 20
169.9757864591105
 30
0.0
 10
-618.9123832279428
 20
169.6503774870009
 30
0.0
 10
-618.9010196962372
 20
169.3249685148915
 30
0.0
 10
-618.8934440084335
 20
169.1080292001518
 30
0.0
 10
-618.8896561645316
 20
168.999559542782
 30
0.0
  0
SPLINE
  5
103
330
2
100
AcDbEntity
  8
AM_HID
100
AcDbSpline
210
0.0
220
0.0
230
1.0
 70
     8
 71
     3
 72
    13
 73
     9
 74
     0
 42
0.0000000001
 43
0.0000000001
 40
0.0
 40
0.0
 40
0.0
 40
0.0
 40
0.1667040478345655
 40
0.3333630607430829
 40
0.5000220736516001
 40
0.6666810865601163
 40
0.8333400994686336
 40
1.0
 40
1.0
 40
1.0
 40
1.0
 10
-619.9582943969401
 20
170.978211265078
 30
0.0
 10
-619.954505696749
 20
170.869717086795
 30
0.0
 10
-619.945370994812
 20
170.6528148769495
 30
0.0
 10
-619.9346443051767
 20
170.3273677509681
 30
0.0
 10
-619.9230688191142
 20
170.0019807482496
 30
0.0
 10
-619.9119183066946
 20
169.676578936951
 30
0.0
 10
-619.8999176409341
 20
169.351204970746
 30
0.0
 10
-619.8939009035572
 20
169.1342228787958
 30
0.0
 10
-619.8901132067065
 20
169.0257574324209
 30
0.0
  0
SPLINE
  5
104
330
2
100
AcDbEntity
  8
AM_HID
100
AcDbSpline
210
0.0
220
0.0
230
1.0
 70
     8
 71
     3
 72
    13
 73
     9
 74
     0
 42
0.0000000001
 43
0.0000000001
 40
0.0
 40
0.0
 40
0.0
 40
0.0
 40
0.1666666788016096
 40
0.3333333394008047
 40
0.4999999999999998
 40
0.666666660599195
 40
0.83333332119839
 40
1.0
 40
1.0
 40
1.0
 40
1.0
 10
-620.0263510068971
 20
169.0293249447714
 30
0.0
 10
-620.0225700837088
 20
169.1375964188354
 30
0.0
 10
-620.0152310249716
 20
169.3541470807573
 30
0.0
 10
-620.0037971160375
 20
169.6789583180756
 30
0.0
 10
-619.99248472768
 20
170.0037737612636
 30
0.0
 10
-619.981111579671
 20
170.3285870833248
 30
0.0
 10
-619.9698599496976
 20
170.6534046840237
 30
0.0
 10
-619.9620753201283
 20
170.8699397910139
 30
0.0
 10
-619.9582943969401
 20
170.978211265078
 30
0.0
  0
SPLINE
  5
105
330
2
100
AcDbEntity
  8
AM_HID
100
AcDbSpline
210
0.0
220
0.0
230
1.0
 70
    24
 71
     3
 72
    13
 73
     9
 74
     0
 42
0.0000000001
 43
0.0000000001
 40
0.0
 40
0.0
 40
0.0
 40
0.0
 40
0.1666672339012543
 40
0.3333337867893207
 40
0.5000003396773879
 40
0.6666668925654542
 40
0.8333334454535217
 40
1.0
 40
1.0
 40
1.0
 40
1.0
 10
-621.0258939647221
 20
169.0554988982693
 30
0.0
 10
-621.0221130290788
 20
169.1637707290005
 30
0.0
 10
-621.0145511730756
 20
169.3803139527973
 30
0.0
 10
-621.0032083971114
 20
169.7051285582401
 30
0.0
 10
-620.991865636506
 20
170.0299427238627
 30
0.0
 10
-620.9805228759457
 20
170.3547568881925
 30
0.0
 10
-620.9691801152575
 20
170.6795710561853
 30
0.0
 10
-620.961618274997
 20
170.8961138291731
 30
0.0
 10
-620.9578373547651
 20
171.0043852185759
 30
0.0
  0
LINE
  5
106
330
2
100
AcDbEntity
  8
AM_HID
100
AcDbLine
 10
-619.958446508471
 20
170.9782192360911
 30
0.0
 11
-620.0265032575589
 21
169.0293289315953
 31
0.0
  0
LINE
  5
107
330
2
100
AcDbEntity
  8
AM_VIS
100
AcDbLine
 10
-620.9578373547651
 20
171.0043852185759
 30
0.0
 11
-619.9584466128669
 21
170.9782152509923
 31
0.0
  0
LINE
  5
108
330
2
100
AcDbEntity
  8
AM_HID
100
AcDbLine
 10
-619.9572300761026
 20
170.9782616243222
 30
0.0
 11
-619.8890461515356
 21
169.0257294905979
 31
0.0
  0
LINE
  5
109
330
2
100
AcDbEntity
  8
AM_VIS
100
AcDbLine
 10
-619.9584466133758
 20
170.9782152510056
 30
0.0
 11
-618.9578373547651
 21
170.952013375439
 31
0.0
  0
LINE
  5
10A
330
2
100
AcDbEntity
  8
AM_HID
100
AcDbLine
 10
-615.9578373547652
 20
170.8734556107336
 30
0.0
 11
-616.0258939647222
 21
168.9245692904271
 31
0.0
  0
LINE
  5
10B
330
2
100
AcDbEntity
  8
AM_HID
100
AcDbLine
 10
-614.9572291543468
 20
170.847281587955
 30
0.0
 11
-614.8890469915507
 21
168.8947999047523
 31
0.0
  0
LINE
  5
10C
330
2
100
AcDbEntity
  8
AM_HID
100
AcDbLine
 10
-614.9584451868278
 20
170.847324039796
 30
0.0
 11
-615.0265031377031
 21
168.8983993206145
 31
0.0
  0
LINE
  5
10D
330
2
100
AcDbEntity
  8
AM_VIS
100
AcDbLine
 10
-615.9578373547652
 20
170.8734556107336
 30
0.0
 11
-614.9572298822625
 21
170.847253781938
 31
0.0
  0
LINE
  5
10E
330
2
100
AcDbEntity
  8
AM_HID
100
AcDbLine
 10
-620.0265031377031
 20
239.2025971439447
 30
0.0
 11
-619.9584451868278
 21
237.2536724247632
 31
0.0
  0
LINE
  5
10F
330
2
100
AcDbEntity
  8
AM_VIS
100
AcDbLine
 10
-618.9578373547651
 20
237.2799126969624
 30
0.0
 11
-619.9572298804016
 21
237.25374268267
 31
0.0
  0
LINE
  5
110
330
2
100
AcDbEntity
  8
AM_HID
100
AcDbLine
 10
-618.9578373547651
 20
237.2799126969624
 30
0.0
 11
-618.8896561645317
 21
239.2323665296194
 31
0.0
  0
LINE
  5
111
330
2
100
AcDbEntity
  8
AM_HID
100
AcDbLine
 10
-619.9572298027218
 20
237.2536963095738
 30
0.0
 11
-619.8890469915507
 21
239.2061965598069
 31
0.0
  0
LINE
  5
112
330
2
100
AcDbEntity
  8
AM_VIS
100
AcDbLine
 10
-618.9578373547651
 20
237.2799126969624
 30
0.0
 11
-619.9572310128151
 21
237.2537426530167
 31
0.0
  0
LINE
  5
113
330
2
100
AcDbEntity
  8
AM_HID
100
AcDbLine
 10
-619.9584445400317
 20
237.2536539029474
 30
0.0
 11
-620.0265031377031
 21
239.2025971439447
 31
0.0
  0
LINE
  5
114
330
2
100
AcDbEntity
  8
AM_HID
100
AcDbLine
 10
-620.9578373547651
 20
237.2275408538255
 30
0.0
 11
-621.0258939647221
 21
239.1764271741321
 31
0.0
  0
LINE
  5
115
330
2
100
AcDbEntity
  8
AM_VIS
100
AcDbLine
 10
-619.9572310154642
 20
237.2537426529473
 30
0.0
 11
-620.9578373547651
 21
237.2275408538255
 31
0.0
  0
LINE
  5
116
330
2
100
AcDbEntity
  8
AM_VIS
100
AcDbLine
 10
-619.9572298822625
 20
237.2537426826212
 30
0.0
 11
-620.9578373547651
 21
237.2275408538255
 31
0.0
  0
SPLINE
  5
117
330
2
100
AcDbEntity
  8
AM_HID
100
AcDbSpline
210
0.0
220
0.0
230
1.0
 70
    24
 71
     3
 72
    13
 73
     9
 74
     0
 42
0.0000000001
 43
0.0000000001
 40
0.0
 40
0.0
 40
0.0
 40
0.0
 40
0.1666666666666577
 40
0.3333333333333335
 40
0.4999999999999958
 40
0.666666666666667
 40
0.8333333333333289
 40
0.9999999999999998
 40
0.9999999999999998
 40
0.9999999999999998
 40
0.9999999999999998
 10
-615.9578373547652
 20
237.3584704616677
 30
0.0
 10
-615.9616182775405
 20
237.466741923907
 30
0.0
 10
-615.9691801230913
 20
237.6832848483855
 30
0.0
 10
-615.9805228914174
 20
238.0080992351032
 30
0.0
 10
-615.9918656597437
 20
238.332913621821
 30
0.0
 10
-616.0032084280699
 20
238.6577280085388
 30
0.0
 10
-616.014551196396
 20
238.9825423952565
 30
0.0
 10
-616.0221130419468
 20
239.199085319735
 30
0.0
 10
-616.0258939647222
 20
239.3073567819743
 30
0.0
  0
SPLINE
  5
118
330
2
100
AcDbEntity
  8
AM_HID
100
AcDbSpline
210
0.0
220
0.0
230
1.0
 70
     8
 71
     3
 72
    13
 73
     9
 74
     0
 42
0.0000000001
 43
0.0000000001
 40
0.0
 40
0.0
 40
0.0
 40
0.0
 40
0.1666666788016061
 40
0.333333339400802
 40
0.4999999999999978
 40
0.6666666605991935
 40
0.8333333211983891
 40
1.0
 40
1.0
 40
1.0
 40
1.0
 10
-614.95829439694
 20
237.3846444151656
 30
0.0
 10
-614.9620753201284
 20
237.4929158892296
 30
0.0
 10
-614.9698599496976
 20
237.7094509962199
 30
0.0
 10
-614.981111579671
 20
238.0342685969188
 30
0.0
 10
-614.9924847276799
 20
238.3590819189799
 30
0.0
 10
-615.0037971160375
 20
238.6838973621679
 30
0.0
 10
-615.0152310249715
 20
239.0087085994862
 30
0.0
 10
-615.0225700837088
 20
239.2252592614081
 30
0.0
 10
-615.0263510068971
 20
239.3335307354722
 30
0.0
  0
SPLINE
  5
119
330
2
100
AcDbEntity
  8
AM_HID
100
AcDbSpline
210
0.0
220
0.0
230
1.0
 70
     8
 71
     3
 72
    13
 73
     9
 74
     0
 42
0.0000000001
 43
0.0000000001
 40
0.0
 40
0.0
 40
0.0
 40
0.0
 40
0.1666599005313657
 40
0.3333189134398855
 40
0.4999779263484009
 40
0.6666369392569161
 40
0.8332959521654357
 40
1.0
 40
1.0
 40
1.0
 40
1.0
 10
-614.8901132067065
 20
239.3370982478226
 30
0.0
 10
-614.8939009035572
 20
239.2286328014477
 30
0.0
 10
-614.8999176409342
 20
239.0116507094975
 30
0.0
 10
-614.9119183066946
 20
238.6862767432926
 30
0.0
 10
-614.9230688191141
 20
238.360874931994
 30
0.0
 10
-614.9346443051768
 20
238.0354879292754
 30
0.0
 10
-614.945370994812
 20
237.7100408032941
 30
0.0
 10
-614.954505696749
 20
237.4931385934486
 30
0.0
 10
-614.95829439694
 20
237.3846444151656
 30
0.0
  0
SPLINE
  5
11A
330
2
100
AcDbEntity
  8
AM_HID
100
AcDbSpline
210
0.0
220
0.0
230
1.0
 70
    24
 71
     3
 72
    13
 73
     9
 74
     0
 42
0.0000000001
 43
0.0000000001
 40
0.0
 40
0.0
 40
0.0
 40
0.0
 40
0.1666999610793863
 40
0.3333666277447076
 40
0.5000332944100156
 40
0.6666999610753324
 40
0.8333666277406493
 40
1.0
 40
1.0
 40
1.0
 40
1.0
 10
-613.8896561645317
 20
239.3632961374616
 30
0.0
 10
-613.8934447651178
 20
239.2548048114896
 30
0.0
 10
-613.9010212136558
 20
239.0378437121669
 30
0.0
 10
-613.912385500389
 20
238.7124131188951
 30
0.0
 10
-613.923749032647
 20
238.387004130971
 30
0.0
 10
-613.9351125638
 20
238.0615951746833
 30
0.0
 10
-613.9464753404792
 20
237.7362078237013
 30
0.0
 10
-613.9540502675473
 20
237.5192902935776
 30
0.0
 10
-613.9578373547651
 20
237.4108423048046
 30
0.0
  0
LINE
  5
11B
330
2
100
AcDbEntity
  8
AM_HID
100
AcDbLine
 10
-614.9572291543468
 20
237.3846444844464
 30
0.0
 11
-614.8890469915507
 21
239.3371261676491
 31
0.0
  0
LINE
  5
11C
330
2
100
AcDbEntity
  8
AM_VIS
100
AcDbLine
 10
-613.9578373547651
 20
237.4108423048046
 30
0.0
 11
-614.9572298804017
 21
237.3846722905122
 31
0.0
  0
LINE
  5
11D
330
2
100
AcDbEntity
  8
AM_HID
100
AcDbLine
 10
-614.9584451868278
 20
237.3846020326054
 30
0.0
 11
-615.0265031377031
 21
239.3335267517869
 31
0.0
  0
LINE
  5
11E
330
2
100
AcDbEntity
  8
AM_VIS
100
AcDbLine
 10
-614.9572298822625
 20
237.3846722904634
 30
0.0
 11
-615.9578373547652
 21
237.3584704616677
 31
0.0
  0
LINE
  5
11F
330
2
100
AcDbEntity
  8
AM_HID
100
AcDbLine
 10
-627.6656904392573
 20
187.4262564037583
 30
0.0
 11
-627.6656904392573
 21
220.8056696686431
 31
0.0
  0
ARC
  5
120
330
2
100
AcDbEntity
  8
AM_HID
100
AcDbCircle
 10
-627.6578373547652
 20
236.7519923415697
 30
0.0
 40
0.2999999999999587
100
AcDbArc
 50
91.49999999995712
 51
180.0
  0
SPLINE
  5
121
330
2
100
AcDbEntity
  8
AM_HID
100
AcDbSpline
210
0.0
220
0.0
230
1.0
 70
    28
 71
     2
 72
     8
 73
     5
 74
     0
 42
0.0000000001
 43
0.0000000001
 40
2.0
 40
2.0
 40
2.0
 40
58.89672715601634
 40
58.89672715601634
 40
115.7934543120326
 40
115.7934543120326
 40
115.7934543120326
 10
-627.9578373547651
 20
187.4262564037583
 30
0.0
 41
1.0
 10
-627.9578373547651
 20
187.4262562076889
 30
0.0
 41
0.707106781186548
 10
-627.9578373547651
 20
204.1159628401313
 30
0.0
 41
1.0
 10
-627.9578373547651
 20
220.8056694725736
 30
0.0
 41
0.707106781186548
 10
-627.9578373547651
 20
220.8056696686431
 30
0.0
 41
1.0
  0
LINE
  5
122
330
2
100
AcDbEntity
  8
AM_HID
100
AcDbLine
 10
-627.6656904392573
 20
236.7519923415697
 30
0.0
 11
-627.9578373547651
 21
236.7519923415697
 31
0.0
  0
LINE
  5
123
330
2
100
AcDbEntity
  8
AM_HID
100
AcDbLine
 10
-627.6656904392573
 20
236.7519923415697
 30
0.0
 11
-627.6656904392573
 21
220.8056696686431
 31
0.0
  0
LINE
  5
124
330
2
100
AcDbEntity
  8
AM_HID
100
AcDbLine
 10
-627.9578373547651
 20
236.7519923415697
 30
0.0
 11
-627.9578373547651
 21
220.8056696686431
 31
0.0
  0
ELLIPSE
  5
125
330
2
100
AcDbEntity
  8
AM_HID
100
AcDbEllipse
 10
-627.6578373547652
 20
236.7519923415697
 30
0.0
 11
-0.0078530844921364
 21
0.2998971974926335
 31
0.0
210
0.0
220
0.0
230
1.0
 40
0.0261679842642333
 41
0.0000000000002183
 42
1.570111094118484
  0
LINE
  5
126
330
2
100
AcDbEntity
  8
AM_HID
100
AcDbLine
 10
-606.9078373547652
 20
237.2955558543694
 30
0.0
 11
-627.6656904392573
 21
236.7519923415697
 31
0.0
  0
LINE
  5
127
330
2
100
AcDbEntity
  8
AM_HID
100
AcDbLine
 10
-606.9078373547652
 20
237.595453051862
 30
0.0
 11
-627.6656904392573
 21
237.0518895390623
 31
0.0
  0
ARC
  5
128
330
2
100
AcDbEntity
  8
AM_HID
100
AcDbCircle
 10
-627.6578373547652
 20
171.4799337308317
 30
0.0
 40
0.2999999999999587
100
AcDbArc
 50
180.0
 51
268.5000000000429
  0
LINE
  5
129
330
2
100
AcDbEntity
  8
AM_HID
100
AcDbLine
 10
-627.6656904392573
 20
171.4799337308317
 30
0.0
 11
-627.9578373547651
 21
171.4799337308317
 31
0.0
  0
ELLIPSE
  5
12A
330
2
100
AcDbEntity
  8
AM_HID
100
AcDbEllipse
 10
-627.6578373547652
 20
171.4799337308317
 30
0.0
 11
-0.0078530844921365
 21
-0.299897197492632
 31
0.0
210
0.0
220
0.0
230
1.0
 40
0.0261679842642329
 41
4.713074213060952
 42
6.283185307179693
  0
LINE
  5
12B
330
2
100
AcDbEntity
  8
AM_HID
100
AcDbLine
 10
-627.9578373547651
 20
187.4262564037583
 30
0.0
 11
-627.9578373547651
 21
171.4799337308317
 31
0.0
  0
LINE
  5
12C
330
2
100
AcDbEntity
  8
AM_HID
100
AcDbLine
 10
-627.6656904392573
 20
187.4262564037583
 30
0.0
 11
-627.6656904392573
 21
171.4799337308317
 31
0.0
  0
LINE
  5
12D
330
2
100
AcDbEntity
  8
AM_HID
100
AcDbLine
 10
-627.6656904392573
 20
171.4799337308317
 30
0.0
 11
-606.9078373547652
 21
170.936370218032
 31
0.0
  0
LINE
  5
12E
330
2
100
AcDbEntity
  8
AM_HID
100
AcDbLine
 10
-627.6656904392573
 20
171.180036533339
 30
0.0
 11
-606.9078373547652
 21
170.6364730205393
 31
0.0
  0
LINE
  5
12F
330
2
100
AcDbEntity
  8
AM_VIS
100
AcDbLine
 10
-613.9578373547651
 20
170.8210837675968
 30
0.0
 11
-614.9572298804017
 21
170.8472537818892
 31
0.0
  0
LINE
  5
130
330
2
100
AcDbEntity
  8
AM_HID
100
AcDbLine
 10
-613.9578373547651
 20
170.8210837675968
 30
0.0
 11
-613.8896561645316
 21
168.8686299349398
 31
0.0
  0
LINE
  5
131
330
2
100
AcDbEntity
  8
AM_HID
100
AcDbLine
 10
-614.8890469915507
 20
168.8947999047523
 30
0.0
 11
-614.9572291543468
 21
170.847281587955
 31
0.0
  0
LINE
  5
132
330
2
100
AcDbEntity
  8
AM_HID
100
AcDbLine
 10
-615.0265031377031
 20
168.8983993206145
 30
0.0
 11
-614.9584462960434
 21
170.8472922760155
 31
0.0
  0
ARC
  5
133
330
2
100
AcDbEntity
  8
AM_VIS
100
AcDbCircle
 10
-628.4078373547652
 20
170.7493160776399
 30
0.0
 40
1.5
100
AcDbArc
 50
180.0
 51
268.5000000000429
  0
LINE
  5
134
330
2
100
AcDbEntity
  8
AM_VIS
100
AcDbLine
 10
-629.9078373547652
 20
170.7493160776399
 30
0.0
 11
-628.4471027772258
 21
170.7493160776399
 31
0.0
  0
ELLIPSE
  5
135
330
2
100
AcDbEntity
  8
AM_VIS
100
AcDbEllipse
 10
-628.4078373547652
 20
170.7493160776399
 30
0.0
 11
-0.0392654224606844
 21
-1.499485987463365
 31
0.0
210
0.0
220
0.0
230
1.0
 40
0.0261679842642324
 41
4.713074213060945
 42
6.283185307179515
  0
LINE
  5
136
330
2
100
AcDbEntity
  8
AM_VIS
100
AcDbLine
 10
-629.9078373547652
 20
237.4826099947616
 30
0.0
 11
-629.9078373547652
 21
170.7493160776399
 31
0.0
  0
LINE
  5
137
330
2
100
AcDbEntity
  8
AM_VIS
100
AcDbLine
 10
-628.4471027772258
 20
189.6276136862061
 30
0.0
 11
-628.4471027772258
 21
170.7493160776399
 31
0.0
  0
LINE
  5
138
330
2
100
AcDbEntity
  8
AM_VIS
100
AcDbLine
 10
-628.4471027772258
 20
237.4826099947616
 30
0.0
 11
-628.4471027772258
 21
218.6043123861538
 31
0.0
  0
LINE
  5
139
330
2
100
AcDbEntity
  8
AM_VIS
100
AcDbLine
 10
-629.9078373547652
 20
237.4826099947616
 30
0.0
 11
-628.4471027772258
 21
237.4826099947616
 31
0.0
  0
LINE
  5
13A
330
2
100
AcDbEntity
  8
AM_VIS
100
AcDbLine
 10
-606.9078373547652
 20
170.1852905626455
 30
0.0
 11
-606.9078373547652
 21
238.0466355097558
 31
0.0
  0
LINE
  5
13B
330
2
100
AcDbEntity
  8
AM_VIS
100
AcDbLine
 10
-606.9078373547652
 20
238.0466355097558
 30
0.0
 11
-628.4471027772258
 21
237.4826099947615
 31
0.0
  0
LINE
  5
13C
330
2
100
AcDbEntity
  8
AM_VIS
100
AcDbLine
 10
-628.4471027772258
 20
170.7493160776399
 30
0.0
 11
-606.9078373547652
 21
170.1852905626455
 31
0.0
  0
LINE
  5
13D
330
2
100
AcDbEntity
  8
AM_VIS
100
AcDbLine
 10
-606.9078373547652
 20
170.1852905626455
 30
0.0
 11
-606.9078373547652
 21
168.6858045751822
 31
0.0
  0
LINE
  5
13E
330
2
100
AcDbEntity
  8
AM_VIS
100
AcDbLine
 10
-628.4471027772258
 20
169.2498300901765
 30
0.0
 11
-606.9078373547652
 21
168.6858045751821
 31
0.0
  0
LINE
  5
13F
330
2
100
AcDbEntity
  8
AM_VIS
100
AcDbLine
 10
-606.9078373547652
 20
238.0466355097558
 30
0.0
 11
-606.9078373547652
 21
239.5461214972192
 31
0.0
  0
LINE
  5
140
330
2
100
AcDbEntity
  8
AM_VIS
100
AcDbLine
 10
-606.9078373547652
 20
239.5461214972192
 30
0.0
 11
-628.4471027772258
 21
238.9820959822249
 31
0.0
  0
ELLIPSE
  5
141
330
2
100
AcDbEntity
  8
AM_VIS
100
AcDbEllipse
 10
-628.4078373547652
 20
237.4826099947615
 30
0.0
 11
-0.0392654224606835
 21
1.499485987463368
 31
0.0
210
0.0
220
0.0
230
0.9999999999999998
 40
0.0261679842642313
 41
0.000000000000052
 42
1.570111094118622
  0
ARC
  5
142
330
2
100
AcDbEntity
  8
AM_VIS
100
AcDbCircle
 10
-628.4078373547652
 20
237.4826099947615
 30
0.0
 40
1.5
100
AcDbArc
 50
91.49999999995712
 51
179.9999999999992
  0
LINE
  5
143
330
2
100
AcDbEntity
  8
AM_VIS
100
AcDbLine
 10
-585.4897416810104
 20
237.4826099947615
 30
0.0
 11
-585.4897416810104
 21
170.7493160776398
 31
0.0
  0
LINE
  5
144
330
2
100
AcDbEntity
  8
AM_VIS
100
AcDbLine
 10
-586.0537671960046
 20
238.0466355097559
 30
0.0
 11
-585.4897416810104
 21
237.4826099947615
 31
0.0
  0
LINE
  5
145
330
2
100
AcDbEntity
  8
AM_VIS
100
AcDbLine
 10
-586.0537671960046
 20
238.0466355097559
 30
0.0
 11
-586.0537671960046
 21
170.1852905626455
 31
0.0
  0
LINE
  5
146
330
2
100
AcDbEntity
  8
AM_VIS
100
AcDbLine
 10
-586.0537671960046
 20
170.1852905626455
 30
0.0
 11
-585.4897416810104
 21
170.7493160776399
 31
0.0
  0
LINE
  5
147
330
2
100
AcDbEntity
  8
AM_VIS
100
AcDbLine
 10
-526.5539672323634
 20
168.999559542782
 30
0.0
 11
-574.6932774370659
 21
168.999559542782
 31
0.0
  0
SPLINE
  5
148
330
2
100
AcDbEntity
  8
AM_HID
100
AcDbSpline
210
0.0
220
0.0
230
1.0
 70
    24
 71
     3
 72
    13
 73
     9
 74
     0
 42
0.0000000001
 43
0.0000000001
 40
0.0
 40
0.0
 40
0.0
 40
0.0
 40
0.1666666666666653
 40
0.333333333333334
 40
0.4999999999999979
 40
0.6666666666666652
 40
0.8333333333333337
 40
0.971349204497606
 40
0.971349204497606
 40
0.971349204497606
 40
0.971349204497606
 10
-526.6220861039787
 20
170.952013375439
 30
0.0
 10
-526.6183017222223
 20
170.8435437180692
 30
0.0
 10
-526.6107329587096
 20
170.6266044033295
 30
0.0
 10
-526.5993798134402
 20
170.30119543122
 30
0.0
 10
-526.5880266681711
 20
169.9757864591105
 30
0.0
 10
-526.576673522902
 20
169.6503774870009
 30
0.0
 10
-526.5659709309195
 20
169.3436149667206
 30
0.0
 10
-526.5590527206935
 20
169.14532210381
 30
0.0
 10
-526.555918892224
 20
169.0554988982693
 30
0.0
  0
SPLINE
  5
149
330
2
100
AcDbEntity
  8
AM_VIS
100
AcDbSpline
210
0.0
220
0.0
230
1.0
 70
    24
 71
     3
 72
     8
 73
     4
 74
     0
 42
0.0000000001
 43
0.0000000001
 40
0.971349204497606
 40
0.971349204497606
 40
0.971349204497606
 40
0.971349204497606
 40
1.0
 40
1.0
 40
1.0
 40
1.0
 10
-526.555918892224
 20
169.0554988982693
 30
0.0
 10
-526.5552683389371
 20
169.0368524464402
 30
0.0
 10
-526.5546177856503
 20
169.018205994611
 30
0.0
 10
-526.5539672323634
 20
168.999559542782
 30
0.0
  0
LINE
  5
14A
330
2
100
AcDbEntity
  8
AM_HID
100
AcDbLine
 10
-526.6220861039787
 20
170.952013375439
 30
0.0
 11
-574.6251317256499
 21
170.952013375439
 31
0.0
  0
LINE
  5
14B
330
2
100
AcDbEntity
  8
AM_VIS
100
AcDbLine
 10
-574.6913250082236
 20
169.0554988982693
 30
0.0
 11
-574.6932774370659
 21
168.999559542782
 31
0.0
  0
LINE
  5
14C
330
2
100
AcDbEntity
  8
AM_HID
100
AcDbLine
 10
-574.6251317256499
 20
170.952013375439
 30
0.0
 11
-574.6913250082236
 21
169.0554988982693
 31
0.0
  0
SPLINE
  5
14D
330
2
100
AcDbEntity
  8
AM_VIS
100
AcDbSpline
210
0.0
220
0.0
230
1.0
 70
     8
 71
     3
 72
    16
 73
    12
 74
     0
 42
0.0000000001
 43
0.0000000001
 40
0.0
 40
0.0
 40
0.0
 40
0.0
 40
0.1097022307235021
 40
0.2257443750411999
 40
0.3466087105536436
 40
0.4630157855563586
 40
0.5800352971498963
 40
0.6957057845526539
 40
0.8013109390051154
 40
0.9028503477777006
 40
1.0
 40
1.0
 40
1.0
 40
1.0
 10
-526.5539672323634
 20
168.999559542782
 30
0.0
 10
-526.496739377972
 20
169.0026199785309
 30
0.0
 10
-526.3784761882645
 20
168.9983399674913
 30
0.0
 10
-526.2029132793735
 20
169.0015260764988
 30
0.0
 10
-526.0358242340535
 20
169.0031064011958
 30
0.0
 10
-525.8862759473584
 20
169.0061398811634
 30
0.0
 10
-525.7611838422962
 20
169.009644459899
 30
0.0
 10
-525.6654850722428
 20
169.013459944125
 30
0.0
 10
-525.6004040429586
 20
169.0179371959871
 30
0.0
 10
-525.5631846647775
 20
169.0206615454764
 30
0.0
 10
-525.5561742156144
 20
169.0265814769707
 30
0.0
 10
-525.5560990360971
 20
169.0257574324209
 30
0.0
  0
SPLINE
  5
14E
330
2
100
AcDbEntity
  8
AM_VIS
100
AcDbSpline
210
0.0
220
0.0
230
1.0
 70
    24
 71
     3
 72
     8
 73
     4
 74
     0
 42
0.0000000001
 43
0.0000000001
 40
0.9979494359402888
 40
0.9979494359402888
 40
0.9979494359402888
 40
0.9979494359402888
 40
1.0
 40
1.0
 40
1.0
 40
1.0
 10
-525.5562387191843
 20
169.0297610828634
 30
0.0
 10
-525.5561921579137
 20
169.0284265288494
 30
0.0
 10
-525.556145596883
 20
169.0270919786756
 30
0.0
 10
-525.5560990360971
 20
169.0257574324209
 30
0.0
  0
SPLINE
  5
14F
330
2
100
AcDbEntity
  8
AM_HID
100
AcDbSpline
210
0.0
220
0.0
230
1.0
 70
     8
 71
     3
 72
    13
 73
     9
 74
     0
 42
0.0000000001
 43
0.0000000001
 40
0.0
 40
0.0
 40
0.0
 40
0.0
 40
0.1667040478345655
 40
0.3333630607430829
 40
0.5000220736516001
 40
0.6666810865601163
 40
0.8333400994686336
 40
0.9979494359402888
 40
0.9979494359402888
 40
0.9979494359402888
 40
0.9979494359402888
 10
-525.6242179077124
 20
170.978211265078
 30
0.0
 10
-525.6204326704495
 20
170.869717086795
 30
0.0
 10
-525.6128666282825
 20
170.6528148769495
 30
0.0
 10
-525.6015115683007
 20
170.3273677509681
 30
0.0
 10
-525.5901593840381
 20
170.0019807482496
 30
0.0
 10
-525.578806294038
 20
169.676578936951
 30
0.0
 10
-525.5675015091746
 20
169.3525394299809
 30
0.0
 10
-525.5599764321358
 20
169.1368926058687
 30
0.0
 10
-525.5562387191843
 20
169.0297610828634
 30
0.0
  0
SPLINE
  5
150
330
2
100
AcDbEntity
  8
AM_HID
100
AcDbSpline
210
0.0
220
0.0
230
1.0
 70
     8
 71
     3
 72
    16
 73
    12
 74
     0
 42
0.0000000001
 43
0.0000000001
 40
0.0
 40
0.0
 40
0.0
 40
0.0
 40
0.109702169405768
 40
0.2257441618121835
 40
0.3466082508204415
 40
0.4630150080428023
 40
0.5800341237435879
 40
0.6957041460725759
 40
0.8013088122734318
 40
0.9028476937439686
 40
1.0
 40
1.0
 40
1.0
 40
1.0
 10
-526.6220861039787
 20
170.952013375439
 30
0.0
 10
-526.5648579634362
 20
170.9550703238121
 30
0.0
 10
-526.4465948522297
 20
170.95079549526
 30
0.0
 10
-526.2710314705725
 20
170.9539793825989
 30
0.0
 10
-526.1039421083715
 20
170.9555603157792
 30
0.0
 10
-525.954393451702
 20
170.9585936047723
 30
0.0
 10
-525.8293010566789
 20
170.9620982570408
 30
0.0
 10
-525.733601776931
 20
170.9659135516444
 30
0.0
 10
-525.6685210008843
 20
170.9703913420407
 30
0.0
 10
-525.6312988922387
 20
170.973113795804
 30
0.0
 10
-525.6242931975639
 20
170.9790384311621
 30
0.0
 10
-525.6242179077124
 20
170.978211265078
 30
0.0
  0
LINE
  5
151
330
2
100
AcDbEntity
  8
AM_VIS
100
AcDbLine
 10
-525.5560990360971
 20
169.0293249447714
 30
0.0
 11
-525.5560990360971
 21
169.0257574324209
 31
0.0
  0
SPLINE
  5
152
330
2
100
AcDbEntity
  8
AM_HID
100
AcDbSpline
210
0.0
220
0.0
230
1.0
 70
     8
 71
     3
 72
     8
 73
     4
 74
     0
 42
0.0000000001
 43
0.0000000001
 40
0.9651255730832758
 40
0.9651255730832758
 40
0.9651255730832758
 40
0.9651255730832758
 40
1.0
 40
1.0
 40
1.0
 40
1.0
 10
-525.6218423050704
 20
170.9102454245698
 30
0.0
 10
-525.6226341714405
 20
170.9329005724639
 30
0.0
 10
-525.6234260388136
 20
170.955555833071
 30
0.0
 10
-525.6242179077124
 20
170.978211265078
 30
0.0
  0
SPLINE
  5
153
330
2
100
AcDbEntity
  8
AM_HID
100
AcDbSpline
210
0.0
220
0.0
230
1.0
 70
     8
 71
     3
 72
     8
 73
     4
 74
     0
 42
0.0000000001
 43
0.0000000001
 40
0.0
 40
0.0
 40
0.0
 40
0.0
 40
0.0348567086646309
 40
0.0348567086646309
 40
0.0348567086646309
 40
0.0348567086646309
 10
-525.5560990360971
 20
169.0293249447714
 30
0.0
 10
-525.55689050268
 20
169.0519688664915
 30
0.0
 10
-525.5576819707077
 20
169.0746129571696
 30
0.0
 10
-525.5584734396856
 20
169.097257158982
 30
0.0
  0
SPLINE
  5
154
330
2
100
AcDbEntity
  8
AM_HID
100
AcDbSpline
210
0.0
220
0.0
230
1.0
 70
     8
 71
     3
 72
    13
 73
     9
 74
     0
 42
0.0000000001
 43
0.0000000001
 40
0.0
 40
0.0
 40
0.0
 40
0.0
 40
0.1666672339012543
 40
0.3333337867893207
 40
0.5000003396773879
 40
0.6666668925654542
 40
0.8333334454535217
 40
1.0
 40
1.0
 40
1.0
 40
1.0
 10
-526.5557950767894
 20
169.0554988982693
 30
0.0
 10
-526.5595794714256
 20
169.1637707290005
 30
0.0
 10
-526.567148109448
 20
169.3803139527973
 30
0.0
 10
-526.578501317979
 20
169.7051285582401
 30
0.0
 10
-526.5898544369814
 20
170.0299427238627
 30
0.0
 10
-526.6012075930166
 20
170.3547568881925
 30
0.0
 10
-526.6125606750238
 20
170.6795710561853
 30
0.0
 10
-526.620129569194
 20
170.8961138291731
 30
0.0
 10
-526.6239139484047
 20
171.0043852185759
 30
0.0
  0
SPLINE
  5
155
330
2
100
AcDbEntity
  8
AM_HID
100
AcDbSpline
210
0.0
220
0.0
230
1.0
 70
     8
 71
     3
 72
    16
 73
    12
 74
     0
 42
0.0000000001
 43
0.0000000001
 40
0.0
 40
0.0
 40
0.0
 40
0.0
 40
0.1098198725557241
 40
0.2259438487760293
 40
0.3468644625536681
 40
0.4633145742703365
 40
0.5803795509207531
 40
0.6961050282519765
 40
0.8017703570302034
 40
0.903372494484565
 40
1.0
 40
1.0
 40
1.0
 40
1.0
 10
-526.6239139484047
 20
171.0043852185759
 30
0.0
 10
-526.5664984159209
 20
171.0053266288566
 30
0.0
 10
-526.4480994007735
 20
171.0036544805316
 30
0.0
 10
-526.2720774891888
 20
171.0030046494356
 30
0.0
 10
-526.1046105143432
 20
171.0007213624545
 30
0.0
 10
-525.9547303814347
 20
170.9978608263415
 30
0.0
 10
-525.8293983404735
 20
170.9943561903773
 30
0.0
 10
-525.7335619714313
 20
170.9903597503782
 30
0.0
 10
-525.6684249928575
 20
170.9865077990985
 30
0.0
 10
-525.6313204540316
 20
170.9815823836288
 30
0.0
 10
-525.6242659392986
 20
170.9809078706637
 30
0.0
 10
-525.6242179077124
 20
170.978211265078
 30
0.0
  0
SPLINE
  5
156
330
2
100
AcDbEntity
  8
AM_VIS
100
AcDbSpline
210
0.0
220
0.0
230
1.0
 70
     8
 71
     3
 72
    16
 73
    12
 74
     0
 42
0.0000000001
 43
0.0000000001
 40
0.0
 40
0.0
 40
0.0
 40
0.0
 40
0.1098198486952183
 40
0.2259438297831591
 40
0.3468644481198273
 40
0.4633145637185164
 40
0.580379543746477
 40
0.696105023868628
 40
0.8017703546847647
 40
0.9033724936011868
 40
1.0
 40
1.0
 40
1.0
 40
1.0
 10
-526.5557950767894
 20
169.0554988982693
 30
0.0
 10
-526.498379556742
 20
169.0564402542941
 30
0.0
 10
-526.3799805566833
 20
169.0547681862063
 30
0.0
 10
-526.2039586530737
 20
169.0541183213363
 30
0.0
 10
-526.0364916732316
 20
169.0518350439727
 30
0.0
 10
-525.8866115349613
 20
169.0489745052056
 30
0.0
 10
-525.7612794888595
 20
169.045469870651
 30
0.0
 10
-525.6654431147139
 20
169.041473427961
 30
0.0
 10
-525.6003061311498
 20
169.0376214853527
 30
0.0
 10
-525.5632015874441
 20
169.0326960401178
 30
0.0
 10
-525.5561470693437
 20
169.0320215978265
 30
0.0
 10
-525.5560990360971
 20
169.0293249447714
 30
0.0
  0
LINE
  5
157
330
2
100
AcDbEntity
  8
AM_HID
100
AcDbLine
 10
-574.6233032537586
 20
171.0043852185759
 30
0.0
 11
-526.6239139484047
 21
171.0043852185759
 31
0.0
  0
LINE
  5
158
330
2
100
AcDbEntity
  8
AM_VIS
100
AcDbLine
 10
-574.6914489651747
 20
169.0554988982693
 30
0.0
 11
-526.5557950767894
 21
169.0554988982693
 31
0.0
  0
LINE
  5
159
330
2
100
AcDbEntity
  8
AM_HID
100
AcDbLine
 10
-574.6233032537586
 20
171.0043852185759
 30
0.0
 11
-574.6914489651747
 21
169.0554988982693
 31
0.0
  0
ELLIPSE
  5
15A
330
2
100
AcDbEntity
  8
AM_VIS
100
AcDbEllipse
 10
-574.6911440031389
 20
169.0293209531862
 30
0.0
 11
-1.000610443263249
 21
0.0000079838736124
 31
0.0
210
0.0
220
0.0
230
1.0
 40
0.0261619734651261
 41
4.712693965123393
 42
6.283185515926239
  0
LINE
  5
15B
330
2
100
AcDbEntity
  8
AM_HID
100
AcDbLine
 10
-575.623608595673
 20
170.9782192360911
 30
0.0
 11
-575.6917544464022
 21
169.0293289315953
 31
0.0
  0
ELLIPSE
  5
15C
330
2
100
AcDbEntity
  8
AM_VIS
100
AcDbEllipse
 10
-574.6229982917229
 20
170.9782072734928
 30
0.0
 11
-1.000610443263249
 21
0.0000079838736124
 31
0.0
210
0.0
220
0.0
230
1.0
 40
0.026161973465126
 41
4.712693965123396
 42
6.283185550671847
  0
LINE
  5
15D
330
2
100
AcDbEntity
  8
AM_VIS
100
AcDbLine
 10
-575.6917544464022
 20
169.0257294905979
 30
0.0
 11
-575.6917544464022
 21
169.0293289315953
 31
0.0
  0
LINE
  5
15E
330
2
100
AcDbEntity
  8
AM_HID
100
AcDbLine
 10
-575.6236060020755
 20
170.9782616243222
 30
0.0
 11
-575.6916134804026
 21
169.0297683303227
 31
0.0
  0
LINE
  5
15F
330
2
100
AcDbEntity
  8
AM_VIS
100
AcDbLine
 10
-575.6916134804026
 20
169.0297683303227
 30
0.0
 11
-575.6917544464022
 21
169.0257294905979
 31
0.0
  0
ELLIPSE
  5
160
330
2
100
AcDbEntity
  8
AM_VIS
100
AcDbEllipse
 10
-574.6911440031389
 20
169.0257854076135
 30
0.0
 11
1.000610443262196
 21
0.0000559554544493
 31
0.0
210
0.0
220
0.0
230
1.0
 40
0.026209805539109
 41
3.141591187902921
 42
4.710255380701311
  0
ELLIPSE
  5
161
330
2
100
AcDbEntity
  8
AM_VIS
100
AcDbEllipse
 10
-574.6229982917229
 20
170.9782392402706
 30
0.0
 11
1.000610443262196
 21
0.0000559554544493
 31
0.0
210
0.0
220
0.0
230
1.0
 40
0.0262098055391088
 41
3.140373771817967
 42
4.710255380701313
  0
LINE
  5
162
330
2
100
AcDbEntity
  8
AM_HID
100
AcDbLine
 10
-574.6233036142625
 20
170.8734556107336
 30
0.0
 11
-526.6239138557097
 21
170.8734556107336
 31
0.0
  0
LINE
  5
163
330
2
100
AcDbEntity
  8
AM_HID
100
AcDbLine
 10
-526.6239138557097
 20
170.8734556107336
 30
0.0
 11
-526.5557949840945
 21
168.9245692904271
 31
0.0
  0
LINE
  5
164
330
2
100
AcDbEntity
  8
AM_VIS
100
AcDbLine
 10
-574.6914224858777
 20
168.9245692904271
 30
0.0
 11
-526.5557949840945
 21
168.9245692904271
 31
0.0
  0
LINE
  5
165
330
2
100
AcDbEntity
  8
AM_HID
100
AcDbLine
 10
-574.6914224858779
 20
168.9245692904271
 30
0.0
 11
-574.6233036142625
 21
170.8734556107336
 31
0.0
  0
LINE
  5
166
330
2
100
AcDbEntity
  8
AM_VIS
100
AcDbLine
 10
-525.5556307697339
 20
168.8988386264992
 30
0.0
 11
-525.555489863371
 21
168.8947999047523
 31
0.0
  0
LINE
  5
167
330
2
100
AcDbEntity
  8
AM_HID
100
AcDbLine
 10
-525.6236097066597
 20
170.847281587955
 30
0.0
 11
-525.5556307697339
 21
168.8988386264992
 31
0.0
  0
LINE
  5
168
330
2
100
AcDbEntity
  8
AM_VIS
100
AcDbLine
 10
-525.555489863371
 20
168.8983993206145
 30
0.0
 11
-525.555489863371
 21
168.8947999047523
 31
0.0
  0
LINE
  5
169
330
2
100
AcDbEntity
  8
AM_HID
100
AcDbLine
 10
-525.6236100771311
 20
170.847324039796
 30
0.0
 11
-525.555489863371
 21
168.8983993206145
 31
0.0
  0
ELLIPSE
  5
16A
330
2
100
AcDbEntity
  8
AM_VIS
100
AcDbEllipse
 10
-526.5560998260183
 20
168.898391345344
 30
0.0
 11
-1.000609962647348
 21
-0.0000079807329305
 31
0.0
210
0.0
220
0.0
230
0.9999999999999998
 40
0.0261619860322787
 41
3.141592444925292
 42
4.712084115620539
  0
ELLIPSE
  5
16B
330
2
100
AcDbEntity
  8
AM_VIS
100
AcDbEllipse
 10
-526.6242186976334
 20
170.8472776656506
 30
0.0
 11
-1.000609962647348
 21
-0.0000079807329305
 31
0.0
210
0.0
220
0.0
230
0.9999999999999998
 40
0.0261619860322786
 41
3.140375428595516
 42
4.712084115620547
  0
LINE
  5
16C
330
2
100
AcDbEntity
  8
AM_VIS
100
AcDbLine
 10
-564.1936180201315
 20
239.2061965598069
 30
0.0
 11
-564.1934771137687
 21
239.20215783806
 31
0.0
  0
LINE
  5
16D
330
2
100
AcDbEntity
  8
AM_HID
100
AcDbLine
 10
-564.1934771137687
 20
239.20215783806
 30
0.0
 11
-564.1254981768428
 21
237.2537148766042
 31
0.0
  0
LINE
  5
16E
330
2
100
AcDbEntity
  8
AM_VIS
100
AcDbLine
 10
-564.1936180201315
 20
239.2025971439447
 30
0.0
 11
-564.1936180201315
 21
239.2061965598069
 31
0.0
  0
LINE
  5
16F
330
2
100
AcDbEntity
  8
AM_HID
100
AcDbLine
 10
-564.1936180201315
 20
239.2025971439447
 30
0.0
 11
-564.1254978063714
 21
237.2536724247632
 31
0.0
  0
ELLIPSE
  5
170
330
2
100
AcDbEntity
  8
AM_VIS
100
AcDbEllipse
 10
-563.124889185869
 20
237.2536868321308
 30
0.0
 11
-1.000609962646295
 21
0.0000559334427916
 31
0.0
210
0.0
220
0.0
230
0.9999999999999998
 40
0.0262098181752051
 41
4.714521740755251
 42
6.283188468325481
  0
LINE
  5
171
330
2
100
AcDbEntity
  8
AM_HID
100
AcDbLine
 10
-563.1931889912785
 20
239.1764271741322
 30
0.0
 11
-563.1270217795238
 21
237.2799126969624
 31
0.0
  0
LINE
  5
172
330
2
100
AcDbEntity
  8
AM_VIS
100
AcDbLine
 10
-563.1951406511389
 20
239.2323665296194
 30
0.0
 11
-563.1931889912785
 21
239.1764271741321
 31
0.0
  0
ELLIPSE
  5
173
330
2
100
AcDbEntity
  8
AM_VIS
100
AcDbEllipse
 10
-563.1930080574842
 20
239.2061406647878
 30
0.0
 11
-1.000609962646295
 21
0.0000559334427917
 31
0.0
210
0.0
220
0.0
230
0.9999999999999998
 40
0.0262098181752051
 41
4.714521740755247
 42
6.283186772291354
  0
LINE
  5
174
330
2
100
AcDbEntity
  8
AM_HID
100
AcDbLine
 10
-564.1264149751741
 20
237.2799126969624
 30
0.0
 11
-526.6220861039787
 21
237.2799126969624
 31
0.0
  0
LINE
  5
175
330
2
100
AcDbEntity
  8
AM_VIS
100
AcDbLine
 10
-526.5559188922241
 20
239.1764271741321
 30
0.0
 11
-526.5539672323635
 21
239.2323665296194
 31
0.0
  0
LINE
  5
176
330
2
100
AcDbEntity
  8
AM_HID
100
AcDbLine
 10
-526.6220861039787
 20
237.2799126969624
 30
0.0
 11
-526.5559188922241
 21
239.1764271741321
 31
0.0
  0
LINE
  5
177
330
2
100
AcDbEntity
  8
AM_VIS
100
AcDbLine
 10
-564.1900821955354
 20
239.2323665296194
 30
0.0
 11
-526.5539672323635
 21
239.2323665296194
 31
0.0
  0
LINE
  5
178
330
2
100
AcDbEntity
  8
AM_HID
100
AcDbLine
 10
-525.6236103544421
 20
237.2536963095738
 30
0.0
 11
-525.5556307697339
 21
239.20215783806
 31
0.0
  0
LINE
  5
179
330
2
100
AcDbEntity
  8
AM_VIS
100
AcDbLine
 10
-525.5556307697339
 20
239.20215783806
 30
0.0
 11
-525.555489863371
 21
239.2061965598069
 31
0.0
  0
ELLIPSE
  5
17A
330
2
100
AcDbEntity
  8
AM_VIS
100
AcDbEllipse
 10
-526.5560998260183
 20
239.2061406647878
 30
0.0
 11
-1.000609962646295
 21
-0.0000559334427935
 31
0.0
210
0.0
220
0.0
230
0.9999999999999998
 40
0.0262098181752051
 41
3.141591188477982
 42
4.710256220014109
  0
ELLIPSE
  5
17B
330
2
100
AcDbEntity
  8
AM_VIS
100
AcDbEllipse
 10
-526.6242186976334
 20
237.2536868321308
 30
0.0
 11
-1.000609962646295
 21
-0.0000559334427937
 31
0.0
210
0.0
220
0.0
230
0.9999999999999998
 40
0.026209818175205
 41
3.141588361752595
 42
4.710256220014107
  0
LINE
  5
17C
330
2
100
AcDbEntity
  8
AM_HID
100
AcDbLine
 10
-525.623610724519
 20
237.2536539029474
 30
0.0
 11
-525.555489863371
 21
239.2025971439447
 31
0.0
  0
LINE
  5
17D
330
2
100
AcDbEntity
  8
AM_VIS
100
AcDbLine
 10
-525.555489863371
 20
239.2061965598069
 30
0.0
 11
-525.555489863371
 21
239.2025971439446
 31
0.0
  0
LINE
  5
17E
330
2
100
AcDbEntity
  8
AM_HID
100
AcDbLine
 10
-526.6239138557097
 20
237.2275408538255
 30
0.0
 11
-526.5557949840946
 21
239.1764271741321
 31
0.0
  0
ELLIPSE
  5
17F
330
2
100
AcDbEntity
  8
AM_VIS
100
AcDbEllipse
 10
-526.5560998260183
 20
239.2026051192151
 30
0.0
 11
1.000609962647348
 21
-0.000007980732931
 31
0.0
210
0.0
220
0.0
230
0.9999999999999998
 40
0.0261619860322782
 41
4.712693845149079
 42
6.283185515844325
  0
ELLIPSE
  5
180
330
2
100
AcDbEntity
  8
AM_VIS
100
AcDbEllipse
 10
-526.6242186976334
 20
237.2537187989085
 30
0.0
 11
1.000609962647348
 21
-0.0000079807329308
 31
0.0
210
0.0
220
0.0
230
0.9999999999999998
 40
0.0261619860322782
 41
4.712693845149048
 42
6.284401398626585
  0
LINE
  5
181
330
2
100
AcDbEntity
  8
AM_VIS
100
AcDbLine
 10
-526.5557949840946
 20
239.1764271741321
 30
0.0
 11
-564.192703308588
 21
239.176427174132
 31
0.0
  0
LINE
  5
182
330
2
100
AcDbEntity
  8
AM_HID
100
AcDbLine
 10
-526.6239138557097
 20
237.2275408538255
 30
0.0
 11
-563.1251940277927
 21
237.2275408538255
 31
0.0
  0
LINE
  5
183
330
2
100
AcDbEntity
  8
AM_HID
100
AcDbLine
 10
-563.1933128994079
 20
239.1764271741322
 30
0.0
 11
-563.1251940277927
 21
237.2275408538256
 31
0.0
  0
ELLIPSE
  5
184
330
2
100
AcDbEntity
  8
AM_VIS
100
AcDbEllipse
 10
-563.124889185869
 20
237.2537187989086
 30
0.0
 11
-1.000609962647348
 21
-0.0000079807329303
 31
0.0
210
0.0
220
0.0
230
0.9999999999999998
 40
0.0261619860322782
 41
6.281968082185365
 42
7.853676769210382
  0
ELLIPSE
  5
185
330
2
100
AcDbEntity
  8
AM_VIS
100
AcDbEllipse
 10
-563.1930080574842
 20
239.2026051192152
 30
0.0
 11
-1.000609962647348
 21
-0.0000079807329301
 31
0.0
210
0.0
220
0.0
230
0.9999999999999998
 40
0.0261619860322782
 41
6.283185098515041
 42
7.853676769210303
  0
LINE
  5
186
330
2
100
AcDbEntity
  8
AM_VIS
100
AcDbLine
 10
-526.5557949840945
 20
239.3073567819743
 30
0.0
 11
-564.1927033085882
 21
239.3073567819743
 31
0.0
  0
SPLINE
  5
187
330
2
100
AcDbEntity
  8
AM_HID
100
AcDbSpline
210
0.0
220
0.0
230
1.0
 70
    24
 71
     3
 72
    13
 73
     9
 74
     0
 42
0.0000000001
 43
0.0000000001
 40
0.0
 40
0.0
 40
0.0
 40
0.0
 40
0.1666666666666577
 40
0.3333333333333335
 40
0.4999999999999958
 40
0.666666666666667
 40
0.8333333333333289
 40
0.9999999999999998
 40
0.9999999999999998
 40
0.9999999999999998
 40
0.9999999999999998
 10
-526.6239138557097
 20
237.3584704616677
 30
0.0
 10
-526.6201294739533
 20
237.466741923907
 30
0.0
 10
-526.6125607104405
 20
237.6832848483855
 30
0.0
 10
-526.6012075651714
 20
238.0080992351032
 30
0.0
 10
-526.5898544199021
 20
238.332913621821
 30
0.0
 10
-526.578501274633
 20
238.6577280085388
 30
0.0
 10
-526.5671481293638
 20
238.9825423952565
 30
0.0
 10
-526.5595793658509
 20
239.199085319735
 30
0.0
 10
-526.5557949840945
 20
239.3073567819743
 30
0.0
  0
LINE
  5
188
330
2
100
AcDbEntity
  8
AM_HID
100
AcDbLine
 10
-526.6239138557097
 20
237.3584704616677
 30
0.0
 11
-564.1291607824757
 21
237.3584704616678
 31
0.0
  0
LINE
  5
189
330
2
100
AcDbEntity
  8
AM_HID
100
AcDbLine
 10
-563.1251940277927
 20
237.3584704616678
 30
0.0
 11
-563.1933128994079
 21
239.3073567819743
 31
0.0
  0
SPLINE
  5
18A
330
2
100
AcDbEntity
  8
AM_VIS
100
AcDbSpline
210
0.0
220
0.0
230
1.0
 70
     8
 71
     3
 72
    16
 73
    12
 74
     0
 42
0.0000000001
 43
0.0000000001
 40
0.0
 40
0.0
 40
0.0
 40
0.0
 40
0.1098198201494517
 40
0.2259438032061512
 40
0.3468644241025848
 40
0.4633145426748487
 40
0.5803795262170628
 40
0.6961050103612224
 40
0.8017703453601319
 40
0.9033724887959689
 40
1.0
 40
1.0
 40
1.0
 40
1.0
 10
-526.5557949840945
 20
239.3073567819743
 30
0.0
 10
-526.4983794823897
 20
239.3064153721983
 30
0.0
 10
-526.3799804993893
 20
239.308087520309
 30
0.0
 10
-526.2039586175431
 20
239.3087373510628
 30
0.0
 10
-526.0364916427359
 20
239.3110206381091
 30
0.0
 10
-525.8866115098173
 20
239.313881174205
 30
0.0
 10
-525.7612794688587
 20
239.3173858101738
 30
0.0
 10
-525.6654430998159
 20
239.3213822501717
 30
0.0
 10
-525.6003061212425
 20
239.3252342014517
 30
0.0
 10
-525.5632015824164
 20
239.3301596169213
 30
0.0
 10
-525.5561470676834
 20
239.3308341298865
 30
0.0
 10
-525.5560990360971
 20
239.3335307354722
 30
0.0
  0
SPLINE
  5
18B
330
2
100
AcDbEntity
  8
AM_HID
100
AcDbSpline
210
0.0
220
0.0
230
1.0
 70
     8
 71
     3
 72
     8
 73
     4
 74
     0
 42
0.0000000001
 43
0.0000000001
 40
0.9651681417812973
 40
0.9651681417812973
 40
0.9651681417812973
 40
0.9651681417812973
 40
1.0
 40
1.0
 40
1.0
 40
1.0
 10
-525.5584717468963
 20
239.2656469525563
 30
0.0
 10
-525.5576808421828
 20
239.2882750104454
 30
0.0
 10
-525.5568899384186
 20
239.3109029573173
 30
0.0
 10
-525.5560990360971
 20
239.3335307354722
 30
0.0
  0
SPLINE
  5
18C
330
2
100
AcDbEntity
  8
AM_HID
100
AcDbSpline
210
0.0
220
0.0
230
1.0
 70
     8
 71
     3
 72
     8
 73
     4
 74
     0
 42
0.0000000001
 43
0.0000000001
 40
0.0
 40
0.0
 40
0.0
 40
0.0
 40
0.0348744502103625
 40
0.0348744502103625
 40
0.0348744502103625
 40
0.0348744502103625
 10
-525.6242179077124
 20
237.3846444151656
 30
0.0
 10
-525.6234260382846
 20
237.4072998623047
 30
0.0
 10
-525.6226341703826
 20
237.4299551380439
 30
0.0
 10
-525.6218423034836
 20
237.4526103010698
 30
0.0
  0
SPLINE
  5
18D
330
2
100
AcDbEntity
  8
AM_HID
100
AcDbSpline
210
0.0
220
0.0
230
1.0
 70
     8
 71
     3
 72
    16
 73
    12
 74
     0
 42
0.0000000001
 43
0.0000000001
 40
0.0
 40
0.0
 40
0.0
 40
0.0
 40
0.1098198201494443
 40
0.2259438032061424
 40
0.346864424102579
 40
0.4633145426748378
 40
0.5803795262170543
 40
0.6961050103612161
 40
0.8017703453601267
 40
0.9033724887959639
 40
1.0
 40
1.0
 40
1.0
 40
1.0
 10
-526.6239138557097
 20
237.3584704616677
 30
0.0
 10
-526.5664983540049
 20
237.3575290518917
 30
0.0
 10
-526.4480993710045
 20
237.3592012000024
 30
0.0
 10
-526.2720774891582
 20
237.3598510307563
 30
0.0
 10
-526.1046105143512
 20
237.3621343178025
 30
0.0
 10
-525.9547303814327
 20
237.3649948538985
 30
0.0
 10
-525.829398340474
 20
237.3684994898672
 30
0.0
 10
-525.733561971431
 20
237.3724959298651
 30
0.0
 10
-525.6684249928577
 20
237.3763478811451
 30
0.0
 10
-525.6313204540316
 20
237.3812732966147
 30
0.0
 10
-525.6242659392986
 20
237.3819478095799
 30
0.0
 10
-525.6242179077124
 20
237.3846444151656
 30
0.0
  0
LINE
  5
18E
330
2
100
AcDbEntity
  8
AM_VIS
100
AcDbLine
 10
-525.5560990360971
 20
239.3370982478226
 30
0.0
 11
-525.5560990360971
 21
239.3335307354722
 31
0.0
  0
SPLINE
  5
18F
330
2
100
AcDbEntity
  8
AM_HID
100
AcDbSpline
210
0.0
220
0.0
230
1.0
 70
     8
 71
     3
 72
    13
 73
     9
 74
     0
 42
0.0000000001
 43
0.0000000001
 40
0.0702732973835944
 40
0.0702732973835944
 40
0.0702732973835944
 40
0.0702732973835944
 40
0.1666599005313657
 40
0.3333189134398855
 40
0.4999779263484009
 40
0.6666369392569161
 40
0.8332959521654357
 40
1.0
 40
1.0
 40
1.0
 40
1.0
 10
-525.5608866462856
 20
239.1998820033015
 30
0.0
 10
-525.5630757488351
 20
239.137143491231
 30
0.0
 10
-525.5690504164681
 20
238.9659184875673
 30
0.0
 10
-525.5788062940381
 20
238.6862767432926
 30
0.0
 10
-525.5901593840381
 20
238.360874931994
 30
0.0
 10
-525.6015115683007
 20
238.0354879292754
 30
0.0
 10
-525.6128666282825
 20
237.7100408032941
 30
0.0
 10
-525.6204326704494
 20
237.4931385934486
 30
0.0
 10
-525.6242179077124
 20
237.3846444151656
 30
0.0
  0
SPLINE
  5
190
330
2
100
AcDbEntity
  8
AM_VIS
100
AcDbSpline
210
0.0
220
0.0
230
1.0
 70
    24
 71
     3
 72
     8
 73
     4
 74
     0
 42
0.0000000001
 43
0.0000000001
 40
0.065687512531855
 40
0.065687512531855
 40
0.065687512531855
 40
0.065687512531855
 40
0.0702732973835944
 40
0.0702732973835944
 40
0.0702732973835944
 40
0.0702732973835944
 10
-525.5605741947215
 20
239.2088367136557
 30
0.0
 10
-525.5606783448268
 20
239.2058518168673
 30
0.0
 10
-525.5607824953665
 20
239.2028669131217
 30
0.0
 10
-525.5608866462856
 20
239.1998820033015
 30
0.0
  0
SPLINE
  5
191
330
2
100
AcDbEntity
  8
AM_HID
100
AcDbSpline
210
0.0
220
0.0
230
1.0
 70
     8
 71
     3
 72
     8
 73
     4
 74
     0
 42
0.0000000001
 43
0.0000000001
 40
0.0020505645559982
 40
0.0020505645559982
 40
0.0020505645559982
 40
0.0020505645559982
 40
0.065687512531855
 40
0.065687512531855
 40
0.065687512531855
 40
0.065687512531855
 10
-525.556238719218
 20
239.3330945964111
 30
0.0
 10
-525.5576836958502
 20
239.2916782144355
 30
0.0
 10
-525.5591289034482
 20
239.2502581339304
 30
0.0
 10
-525.5605741947215
 20
239.2088367136557
 30
0.0
  0
SPLINE
  5
192
330
2
100
AcDbEntity
  8
AM_VIS
100
AcDbSpline
210
0.0
220
0.0
230
1.0
 70
    24
 71
     3
 72
     8
 73
     4
 74
     0
 42
0.0000000001
 43
0.0000000001
 40
0.0
 40
0.0
 40
0.0
 40
0.0
 40
0.0020505645559982
 40
0.0020505645559982
 40
0.0020505645559982
 40
0.0020505645559982
 10
-525.5560990360971
 20
239.3370982478226
 30
0.0
 10
-525.5561455968943
 20
239.3357637012449
 30
0.0
 10
-525.5561921579364
 20
239.3344291507482
 30
0.0
 10
-525.556238719218
 20
239.3330945964111
 30
0.0
  0
SPLINE
  5
193
330
2
100
AcDbEntity
  8
AM_VIS
100
AcDbSpline
210
0.0
220
0.0
230
1.0
 70
     8
 71
     3
 72
     8
 73
     4
 74
     0
 42
0.0000000001
 43
0.0000000001
 40
0.0
 40
0.0
 40
0.0
 40
0.0
 40
0.028650793116599
 40
0.028650793116599
 40
0.028650793116599
 40
0.028650793116599
 10
-526.55396788194
 20
239.3632961374616
 30
0.0
 10
-526.5546184351726
 20
239.3446496871851
 30
0.0
 10
-526.5552689392367
 20
239.3260032351953
 30
0.0
 10
-526.5559194079608
 20
239.3073567819743
 30
0.0
  0
SPLINE
  5
194
330
2
100
AcDbEntity
  8
AM_HID
100
AcDbSpline
210
0.0
220
0.0
230
1.0
 70
     8
 71
     3
 72
    13
 73
     9
 74
     0
 42
0.0000000001
 43
0.0000000001
 40
0.028650793116599
 40
0.028650793116599
 40
0.028650793116599
 40
0.028650793116599
 40
0.1666999610793863
 40
0.3333666277447076
 40
0.5000332944100156
 40
0.6666999610753324
 40
0.8333666277406493
 40
1.0
 40
1.0
 40
1.0
 40
1.0
 10
-526.5559194079608
 20
239.3073567819743
 30
0.0
 10
-526.5590535852866
 20
239.2175118920912
 30
0.0
 10
-526.565969841757
 20
239.0191972646086
 30
0.0
 10
-526.576674473303
 20
238.7124131188951
 30
0.0
 10
-526.5880271647081
 20
238.387004130971
 30
0.0
 10
-526.5993807639947
 20
238.0615951746833
 30
0.0
 10
-526.6107317911566
 20
237.7362078237013
 30
0.0
 10
-526.6183031277912
 20
237.5192902935776
 30
0.0
 10
-526.6220867535553
 20
237.4108423048046
 30
0.0
  0
SPLINE
  5
195
330
2
100
AcDbEntity
  8
AM_HID
100
AcDbSpline
210
0.0
220
0.0
230
1.0
 70
     8
 71
     3
 72
    16
 73
    12
 74
     0
 42
0.0000000001
 43
0.0000000001
 40
0.0
 40
0.0
 40
0.0
 40
0.0
 40
0.1097026420003507
 40
0.2257448065985961
 40
0.3466089879239094
 40
0.463015757400279
 40
0.580034816177859
 40
0.6957047197021654
 40
0.801309227355804
 40
0.902847914380171
 40
1.0
 40
1.0
 40
1.0
 40
1.0
 10
-526.6220867535553
 20
237.4108423048046
 30
0.0
 10
-526.5648583111706
 20
237.4077879855515
 30
0.0
 10
-526.4465957615816
 20
237.4120587411261
 30
0.0
 10
-526.2710318873295
 20
237.408876594179
 30
0.0
 10
-526.103942605886
 20
237.4072951777865
 30
0.0
 10
-525.9543939443581
 20
237.4042620370424
 30
0.0
 10
-525.8293015653594
 20
237.4007573287174
 30
0.0
 10
-525.7336022498089
 20
237.3969421814453
 30
0.0
 10
-525.6685213822298
 20
237.3924639860482
 30
0.0
 10
-525.6312991190907
 20
237.3897429988961
 30
0.0
 10
-525.6242932788018
 20
237.3838149167306
 30
0.0
 10
-525.6242179077124
 20
237.3846444151656
 30
0.0
  0
SPLINE
  5
196
330
2
100
AcDbEntity
  8
AM_VIS
100
AcDbSpline
210
0.0
220
0.0
230
1.0
 70
     8
 71
     3
 72
    16
 73
    12
 74
     0
 42
0.0000000001
 43
0.0000000001
 40
0.0
 40
0.0
 40
0.0
 40
0.0
 40
0.1097027033274516
 40
0.2257450198360733
 40
0.3466094476645198
 40
0.4630165349201348
 40
0.5800359895893119
 40
0.6957063581862281
 40
0.8013113540904562
 40
0.9028505684159423
 40
1.0
 40
1.0
 40
1.0
 40
1.0
 10
-526.55396788194
 20
239.3632961374616
 30
0.0
 10
-526.4967397255419
 20
239.3602383308017
 30
0.0
 10
-526.3784770977073
 20
239.3645142689039
 30
0.0
 10
-526.2029136961055
 20
239.361329900278
 30
0.0
 10
-526.0358247315743
 20
239.35974909237
 30
0.0
 10
-525.8862764400126
 20
239.3567157606514
 30
0.0
 10
-525.7611843509769
 20
239.3532111258588
 30
0.0
 10
-525.6654855451208
 20
239.3493957889663
 30
0.0
 10
-525.6004044243025
 20
239.3449181320959
 30
0.0
 10
-525.5631848916359
 20
239.3421952492303
 30
0.0
 10
-525.5561742968502
 20
239.3362718709859
 30
0.0
 10
-525.5560990360971
 20
239.3370982478226
 30
0.0
  0
LINE
  5
197
330
2
100
AcDbEntity
  8
AM_HID
100
AcDbLine
 10
-564.1309913206767
 20
237.4108423048046
 30
0.0
 11
-526.6220867535553
 21
237.4108423048046
 31
0.0
  0
LINE
  5
198
330
2
100
AcDbEntity
  8
AM_VIS
100
AcDbLine
 10
-563.1951406511389
 20
239.3632961374617
 30
0.0
 11
-526.55396788194
 21
239.3632961374616
 31
0.0
  0
LINE
  5
199
330
2
100
AcDbEntity
  8
AM_HID
100
AcDbLine
 10
-563.1270217795238
 20
237.4108423048046
 30
0.0
 11
-563.1931889912785
 21
239.3073567819743
 31
0.0
  0
LINE
  5
19A
330
2
100
AcDbEntity
  8
AM_VIS
100
AcDbLine
 10
-563.1931889912785
 20
239.3073567819743
 30
0.0
 11
-563.1951406511388
 21
239.3632961374616
 31
0.0
  0
ELLIPSE
  5
19B
330
2
100
AcDbEntity
  8
AM_VIS
100
AcDbEllipse
 10
-563.1930080574842
 20
239.3370702726301
 30
0.0
 11
1.000609962646296
 21
-0.0000559334427917
 31
0.0
210
0.0
220
0.0
230
0.9999999999999998
 40
0.026209818175205
 41
1.572929087165401
 42
3.141594118701475
  0
LINE
  5
19C
330
2
100
AcDbEntity
  8
AM_VIS
100
AcDbLine
 10
-564.1934771137687
 20
239.3330874459022
 30
0.0
 11
-564.1936180201315
 21
239.3371261676491
 31
0.0
  0
LINE
  5
19D
330
2
100
AcDbEntity
  8
AM_HID
100
AcDbLine
 10
-564.1891365290477
 20
239.208675648208
 30
0.0
 11
-564.1934771137687
 21
239.3330874459022
 31
0.0
  0
LINE
  5
19E
330
2
100
AcDbEntity
  8
AM_VIS
100
AcDbLine
 10
-564.1888352666951
 20
239.2000407307327
 30
0.0
 11
-564.1891365290477
 21
239.208675648208
 31
0.0
  0
LINE
  5
19F
330
2
100
AcDbEntity
  8
AM_HID
100
AcDbLine
 10
-564.1254981768428
 20
237.3846444844464
 30
0.0
 11
-564.1888352666951
 21
239.2000407307327
 31
0.0
  0
ELLIPSE
  5
1A0
330
2
100
AcDbEntity
  8
AM_VIS
100
AcDbEllipse
 10
-563.124889185869
 20
237.384616439973
 30
0.0
 11
1.000609962646296
 21
-0.0000559334427916
 31
0.0
210
0.0
220
0.0
230
0.9999999999999998
 40
0.026209818175205
 41
1.572929087165494
 42
3.141595814735698
  0
LINE
  5
1A1
330
2
100
AcDbEntity
  8
AM_VIS
100
AcDbLine
 10
-564.1936180201315
 20
239.3335267517869
 30
0.0
 11
-564.1936180201315
 21
239.3371261676491
 31
0.0
  0
LINE
  5
1A2
330
2
100
AcDbEntity
  8
AM_HID
100
AcDbLine
 10
-564.1254978063714
 20
237.3846020326054
 30
0.0
 11
-564.1889534290992
 21
239.2000724323402
 31
0.0
  0
LINE
  5
1A3
330
2
100
AcDbEntity
  8
AM_VIS
100
AcDbLine
 10
-564.1889534290992
 20
239.2000724323402
 30
0.0
 11
-564.1892530040231
 21
239.2086432946788
 31
0.0
  0
LINE
  5
1A4
330
2
100
AcDbEntity
  8
AM_HID
100
AcDbLine
 10
-564.1892530040231
 20
239.2086432946788
 30
0.0
 11
-564.1936180201315
 21
239.3335267517869
 31
0.0
  0
ELLIPSE
  5
1A5
330
2
100
AcDbEntity
  8
AM_VIS
100
AcDbEllipse
 10
-563.1930080574842
 20
239.3335347270574
 30
0.0
 11
1.000609962647348
 21
0.0000079807329301
 31
0.0
210
0.0
220
0.0
230
0.9999999999999998
 40
0.0261619860322782
 41
3.141592444925326
 42
4.712084115620609
  0
ELLIPSE
  5
1A6
330
2
100
AcDbEntity
  8
AM_VIS
100
AcDbEllipse
 10
-563.124889185869
 20
237.3846484067508
 30
0.0
 11
1.000609962647348
 21
0.0000079807329303
 31
0.0
210
0.0
220
0.0
230
0.9999999999999998
 40
0.0261619860322782
 41
3.140375428595584
 42
4.712084115620609
  0
LINE
  5
1A7
330
2
100
AcDbEntity
  8
AM_HID
100
AcDbLine
 10
-583.5595352378477
 20
236.7519923415697
 30
0.0
 11
-583.2596380403551
 21
236.7519923415697
 31
0.0
  0
LINE
  5
1A8
330
2
100
AcDbEntity
  8
AM_HID
100
AcDbLine
 10
-583.2596380403551
 20
171.4799337308317
 30
0.0
 11
-583.2596380403551
 21
236.7519923415697
 31
0.0
  0
LINE
  5
1A9
330
2
100
AcDbEntity
  8
AM_HID
100
AcDbLine
 10
-583.5595352378477
 20
171.4799337308317
 30
0.0
 11
-583.2596380403551
 21
171.4799337308317
 31
0.0
  0
LINE
  5
1AA
330
2
100
AcDbEntity
  8
AM_HID
100
AcDbLine
 10
-583.5595352378478
 20
171.4799337308317
 30
0.0
 11
-583.5595352378478
 21
236.7519923415697
 31
0.0
  0
LINE
  5
1AB
330
2
100
AcDbEntity
  8
AM_HID
100
AcDbLine
 10
-583.2596380403551
 20
237.0518895390623
 30
0.0
 11
-583.2596380403551
 21
236.7519923415697
 31
0.0
  0
ELLIPSE
  5
1AC
330
2
100
AcDbEntity
  8
AM_HID
100
AcDbEllipse
 10
-583.2596380403551
 20
236.7519923415697
 30
0.0
 11
0.2121320343559343
 21
0.2121320343559387
 31
0.0
210
0.0
220
0.0
230
0.9999999999999998
 40
0.9993150019884087
 41
0.7857407797355932
 42
2.355851873854191
  0
LINE
  5
1AD
330
2
100
AcDbEntity
  8
AM_HID
100
AcDbLine
 10
-583.2596380403551
 20
237.0518895390623
 30
0.0
 11
-517.9875794296171
 21
237.0518895390623
 31
0.0
  0
LINE
  5
1AE
330
2
100
AcDbEntity
  8
AM_HID
100
AcDbLine
 10
-517.9875794296171
 20
237.0518895390623
 30
0.0
 11
-517.9875794296171
 21
236.7519923415697
 31
0.0
  0
LINE
  5
1AF
330
2
100
AcDbEntity
  8
AM_HID
100
AcDbLine
 10
-583.2596380403551
 20
236.7519923415697
 30
0.0
 11
-517.9875794296171
 21
236.7519923415697
 31
0.0
  0
LINE
  5
1B0
330
2
100
AcDbEntity
  8
AM_HID
100
AcDbLine
 10
-517.6876822321246
 20
236.7519923415697
 30
0.0
 11
-517.9875794296171
 21
236.7519923415697
 31
0.0
  0
LINE
  5
1B1
330
2
100
AcDbEntity
  8
AM_HID
100
AcDbLine
 10
-517.6876822321245
 20
236.7519923415697
 30
0.0
 11
-517.6876822321245
 21
204.1159672160984
 31
0.0
  0
LINE
  5
1B2
330
2
100
AcDbEntity
  8
AM_HID
100
AcDbLine
 10
-517.9875794296171
 20
236.7519923415697
 30
0.0
 11
-517.9875794296171
 21
204.1159672160984
 31
0.0
  0
ELLIPSE
  5
1B3
330
2
100
AcDbEntity
  8
AM_HID
100
AcDbEllipse
 10
-517.9875794296171
 20
236.7519923415697
 30
0.0
 11
-0.2121320343559295
 21
0.212132034355943
 31
0.0
210
0.0
220
0.0
230
1.0
 40
0.999315001988409
 41
3.927333433325586
 42
5.497444527443852
  0
LINE
  5
1B4
330
2
100
AcDbEntity
  8
AM_HID
100
AcDbLine
 10
-517.1441187193249
 20
237.2955558543694
 30
0.0
 11
-517.6876822321245
 21
236.7519923415697
 31
0.0
  0
LINE
  5
1B5
330
2
100
AcDbEntity
  8
AM_HID
100
AcDbLine
 10
-517.4440159168175
 20
237.595453051862
 30
0.0
 11
-517.9875794296171
 21
237.0518895390623
 31
0.0
  0
ELLIPSE
  5
1B6
330
2
100
AcDbEntity
  8
AM_HID
100
AcDbEllipse
 10
-517.444221557072
 20
237.2953502141148
 30
0.0
 11
0.2122774439829648
 21
0.2122774439829739
 31
0.0
210
0.0
220
0.0
230
0.9999999999999998
 40
0.9993150019884089
 41
5.498129760120264
 42
7.068240854238889
  0
LINE
  5
1B7
330
2
100
AcDbEntity
  8
AM_HID
100
AcDbLine
 10
-583.2596380403551
 20
237.0518895390623
 30
0.0
 11
-583.8032015531548
 21
237.595453051862
 31
0.0
  0
LINE
  5
1B8
330
2
100
AcDbEntity
  8
AM_HID
100
AcDbLine
 10
-517.4440159168175
 20
237.595453051862
 30
0.0
 11
-583.8032015531548
 21
237.5954530518621
 31
0.0
  0
ELLIPSE
  5
1B9
330
2
100
AcDbEntity
  8
AM_HID
100
AcDbEllipse
 10
-583.8029959129003
 20
237.2953502141148
 30
0.0
 11
-0.2122774439829726
 21
0.2122774439829659
 31
0.0
210
0.0
220
0.0
230
1.0
 40
0.9993150019884089
 41
5.49812976012026
 42
7.068240854238884
  0
LINE
  5
1BA
330
2
100
AcDbEntity
  8
AM_HID
100
AcDbLine
 10
-583.5595352378478
 20
236.7519923415697
 30
0.0
 11
-584.1030987506475
 21
237.2955558543694
 31
0.0
  0
LINE
  5
1BB
330
2
100
AcDbEntity
  8
AM_HID
100
AcDbLine
 10
-584.1030987506475
 20
201.0078029599772
 30
0.0
 11
-583.9422650883732
 21
200.6858045751822
 31
0.0
  0
LINE
  5
1BC
330
2
100
AcDbEntity
  8
AM_HID
100
AcDbLine
 10
-583.9422650883732
 20
200.6858045751822
 30
0.0
 11
-585.1925065150003
 21
200.6858045751822
 31
0.0
  0
LINE
  5
1BD
330
2
100
AcDbEntity
  8
AM_HID
100
AcDbLine
 10
-585.354197470932
 20
201.0095193119464
 30
0.0
 11
-585.1925065150003
 21
200.6858045751822
 31
0.0
  0
LINE
  5
1BE
330
2
100
AcDbEntity
  8
AM_HID
100
AcDbLine
 10
-584.1030987506475
 20
201.0078029599772
 30
0.0
 11
-585.354197470932
 21
201.0095193119464
 31
0.0
  0
ELLIPSE
  5
1BF
330
2
100
AcDbEntity
  8
AM_HID
100
AcDbEllipse
 10
-585.1925065150003
 20
194.6858045751822
 30
0.0
 11
-0.0000000000000012
 21
-5.999999999999993
 31
0.0
210
0.0
220
0.0
230
1.0
 40
0.0261769483071253
 41
0.0000000000000065
 42
3.141592653589788
  0
LINE
  5
1C0
330
2
100
AcDbEntity
  8
AM_HID
100
AcDbLine
 10
-585.354197470932
 20
188.362089838418
 30
0.0
 11
-585.1925065150003
 21
188.6858045751822
 31
0.0
  0
LINE
  5
1C1
330
2
100
AcDbEntity
  8
AM_HID
100
AcDbLine
 10
-585.354197470932
 20
201.0095193119464
 30
0.0
 11
-585.354197470932
 21
188.362089838418
 31
0.0
  0
LINE
  5
1C2
330
2
100
AcDbEntity
  8
AM_HID
100
AcDbLine
 10
-585.1925065150003
 20
188.6858045751822
 30
0.0
 11
-583.9422650883732
 21
188.6858045751822
 31
0.0
  0
LINE
  5
1C3
330
2
100
AcDbEntity
  8
AM_HID
100
AcDbLine
 10
-583.9422650883732
 20
188.6858045751822
 30
0.0
 11
-584.1030987506475
 21
188.3638061903871
 31
0.0
  0
LINE
  5
1C4
330
2
100
AcDbEntity
  8
AM_HID
100
AcDbLine
 10
-585.354197470932
 20
188.362089838418
 30
0.0
 11
-584.1030987506475
 21
188.3638061903871
 31
0.0
  0
ELLIPSE
  5
1C5
330
2
100
AcDbEntity
  8
AM_HID
100
AcDbEllipse
 10
-583.9422650883731
 20
194.6858045751822
 30
0.0
 11
0.0000000000000013
 21
5.999999999999993
 31
0.0
210
0.0
220
0.0
230
1.0
 40
0.0261769483071253
 41
3.141592653589798
 42
6.283185307179593
  0
LINE
  5
1C6
330
2
100
AcDbEntity
  8
AM_HID
100
AcDbLine
 10
-584.1030987506475
 20
237.2955558543694
 30
0.0
 11
-584.1030987506475
 21
201.0078029599772
 31
0.0
  0
LINE
  5
1C7
330
2
100
AcDbEntity
  8
AM_HID
100
AcDbLine
 10
-583.5595352378478
 20
171.4799337308317
 30
0.0
 11
-584.1030987506475
 21
170.936370218032
 31
0.0
  0
LINE
  5
1C8
330
2
100
AcDbEntity
  8
AM_HID
100
AcDbLine
 10
-584.1030987506475
 20
188.3638061903871
 30
0.0
 11
-584.1030987506475
 21
170.936370218032
 31
0.0
  0
ELLIPSE
  5
1C9
330
2
100
AcDbEntity
  8
AM_HID
100
AcDbEllipse
 10
-583.8029959129003
 20
170.9365758582866
 30
0.0
 11
-0.2122774439829685
 21
-0.2122774439829701
 31
0.0
210
0.0
220
0.0
230
1.0
 40
0.9993150019884089
 41
5.498129760120267
 42
7.068240854238891
  0
ELLIPSE
  5
1CA
330
2
100
AcDbEntity
  8
AM_HID
100
AcDbEllipse
 10
-583.2596380403551
 20
171.4799337308317
 30
0.0
 11
-0.2121320343559361
 21
0.2121320343559343
 31
0.0
210
0.0
220
0.0
230
1.0
 40
0.999315001988409
 41
0.7857407797356056
 42
2.355851873854204
  0
LINE
  5
1CB
330
2
100
AcDbEntity
  8
AM_HID
100
AcDbLine
 10
-583.2596380403551
 20
171.180036533339
 30
0.0
 11
-583.8032015531548
 21
170.6364730205393
 31
0.0
  0
LINE
  5
1CC
330
2
100
AcDbEntity
  8
AM_HID
100
AcDbLine
 10
-583.2596380403551
 20
171.180036533339
 30
0.0
 11
-583.2596380403551
 21
171.4799337308317
 31
0.0
  0
LINE
  5
1CD
330
2
100
AcDbEntity
  8
AM_HID
100
AcDbLine
 10
-517.9875794296171
 20
171.4799337308317
 30
0.0
 11
-583.2596380403551
 21
171.4799337308317
 31
0.0
  0
LINE
  5
1CE
330
2
100
AcDbEntity
  8
AM_HID
100
AcDbLine
 10
-517.9875794296171
 20
171.180036533339
 30
0.0
 11
-517.9875794296171
 21
171.4799337308317
 31
0.0
  0
LINE
  5
1CF
330
2
100
AcDbEntity
  8
AM_HID
100
AcDbLine
 10
-517.9875794296171
 20
171.180036533339
 30
0.0
 11
-583.2596380403551
 21
171.180036533339
 31
0.0
  0
LINE
  5
1D0
330
2
100
AcDbEntity
  8
AM_HID
100
AcDbLine
 10
-517.6876822321245
 20
171.4799337308317
 30
0.0
 11
-517.9875794296171
 21
171.4799337308317
 31
0.0
  0
ELLIPSE
  5
1D1
330
2
100
AcDbEntity
  8
AM_HID
100
AcDbEllipse
 10
-517.9875794296171
 20
171.4799337308317
 30
0.0
 11
-0.2121320343559326
 21
-0.2121320343559379
 31
0.0
210
0.0
220
0.0
230
1.0
 40
0.9993150019884087
 41
0.7857407797354946
 42
2.355851873854235
  0
LINE
  5
1D2
330
2
100
AcDbEntity
  8
AM_HID
100
AcDbLine
 10
-517.9875794296171
 20
204.1159672160984
 30
0.0
 11
-517.9875794296171
 21
171.4799337308317
 31
0.0
  0
LINE
  5
1D3
330
2
100
AcDbEntity
  8
AM_HID
100
AcDbLine
 10
-517.6876822321245
 20
204.1159672160984
 30
0.0
 11
-517.6876822321245
 21
171.4799337308317
 31
0.0
  0
LINE
  5
1D4
330
2
100
AcDbEntity
  8
AM_HID
100
AcDbLine
 10
-517.1441187193249
 20
170.936370218032
 30
0.0
 11
-517.1441187193247
 21
237.2955558543694
 31
0.0
  0
LINE
  5
1D5
330
2
100
AcDbEntity
  8
AM_HID
100
AcDbLine
 10
-517.6876822321245
 20
171.4799337308317
 30
0.0
 11
-517.1441187193249
 21
170.936370218032
 31
0.0
  0
ELLIPSE
  5
1D6
330
2
100
AcDbEntity
  8
AM_HID
100
AcDbEllipse
 10
-517.444221557072
 20
170.9365758582866
 30
0.0
 11
0.2122774439829814
 21
-0.2122774439829572
 31
0.0
210
0.0
220
0.0
230
0.9999999999999998
 40
0.9993150019884085
 41
5.498129760120227
 42
7.068240854238852
  0
LINE
  5
1D7
330
2
100
AcDbEntity
  8
AM_HID
100
AcDbLine
 10
-517.9875794296171
 20
171.180036533339
 30
0.0
 11
-517.4440159168175
 21
170.6364730205393
 31
0.0
  0
LINE
  5
1D8
330
2
100
AcDbEntity
  8
AM_HID
100
AcDbLine
 10
-583.8032015531548
 20
170.6364730205393
 30
0.0
 11
-517.4440159168175
 21
170.6364730205393
 31
0.0
  0
ELLIPSE
  5
1D9
330
2
100
AcDbEntity
  8
AM_HID
100
AcDbEllipse
 10
-574.6229987723388
 20
170.8473096324284
 30
0.0
 11
1.000609962646295
 21
0.0000559334427912
 31
0.0
210
0.0
220
0.0
230
0.9999999999999998
 40
0.0262098181752055
 41
3.141135003587877
 42
4.710256220014109
  0
LINE
  5
1DA
330
2
100
AcDbEntity
  8
AM_HID
100
AcDbLine
 10
-574.6251313659936
 20
170.8210837675968
 30
0.0
 11
-526.6220861039787
 21
170.8210837675968
 31
0.0
  0
ELLIPSE
  5
1DB
330
2
100
AcDbEntity
  8
AM_VIS
100
AcDbEllipse
 10
-526.6242186976334
 20
170.8473096324284
 30
0.0
 11
1.000609962646296
 21
-0.0000559334427941
 31
0.0
210
0.0
220
0.0
230
0.9999999999999998
 40
0.0262098181752055
 41
4.714521740755249
 42
6.283188468325501
  0
ELLIPSE
  5
1DC
330
2
100
AcDbEntity
  8
AM_HID
100
AcDbEllipse
 10
-574.6229987723388
 20
170.8472776656506
 30
0.0
 11
1.000609962647348
 21
-0.0000079807329306
 31
0.0
210
0.0
220
0.0
230
0.9999999999999998
 40
0.0261619860322786
 41
1.571101191558915
 42
3.142354560389015
  0
LINE
  5
1DD
330
2
100
AcDbEntity
  8
AM_HID
100
AcDbLine
 10
-526.6220861039787
 20
170.8210837675968
 30
0.0
 11
-526.555918892224
 21
168.9245692904271
 31
0.0
  0
LINE
  5
1DE
330
2
100
AcDbEntity
  8
AM_VIS
100
AcDbLine
 10
-526.555918892224
 20
168.9245692904271
 30
0.0
 11
-526.5539672323634
 21
168.8686299349398
 31
0.0
  0
ELLIPSE
  5
1DF
330
2
100
AcDbEntity
  8
AM_VIS
100
AcDbEllipse
 10
-526.5560998260183
 20
168.8948557997714
 30
0.0
 11
-1.000609962646296
 21
0.0000559334427914
 31
0.0
210
0.0
220
0.0
230
0.9999999999999998
 40
0.0262098181752056
 41
1.572929087165477
 42
3.141594118701594
  0
LINE
  5
1E0
330
2
100
AcDbEntity
  8
AM_VIS
100
AcDbLine
 10
-574.6932502376088
 20
168.8686299349398
 30
0.0
 11
-574.6912985777482
 21
168.9245692904271
 31
0.0
  0
LINE
  5
1E1
330
2
100
AcDbEntity
  8
AM_HID
100
AcDbLine
 10
-574.6912985777482
 20
168.9245692904271
 30
0.0
 11
-574.6251313659936
 21
170.8210837675968
 31
0.0
  0
LINE
  5
1E2
330
2
100
AcDbEntity
  8
AM_VIS
100
AcDbLine
 10
-526.5539672323635
 20
168.8686299349398
 30
0.0
 11
-574.6932502376088
 21
168.8686299349398
 31
0.0
  0
LINE
  5
1E3
330
2
100
AcDbEntity
  8
AM_HID
100
AcDbLine
 10
-575.6869446014389
 20
169.0318925567509
 30
0.0
 11
-575.6236077633126
 21
170.847281587955
 31
0.0
  0
LINE
  5
1E4
330
2
100
AcDbEntity
  8
AM_VIS
100
AcDbLine
 10
-575.687246371808
 20
169.0232430782806
 30
0.0
 11
-575.6869446014389
 21
169.0318925567509
 31
0.0
  0
LINE
  5
1E5
330
2
100
AcDbEntity
  8
AM_HID
100
AcDbLine
 10
-575.6915867002385
 20
168.8988386264992
 30
0.0
 11
-575.687246371808
 21
169.0232430782806
 31
0.0
  0
LINE
  5
1E6
330
2
100
AcDbEntity
  8
AM_VIS
100
AcDbLine
 10
-575.6917276066014
 20
168.8947999047523
 30
0.0
 11
-575.6915867002385
 21
168.8988386264992
 31
0.0
  0
ELLIPSE
  5
1E7
330
2
100
AcDbEntity
  8
AM_VIS
100
AcDbEllipse
 10
-574.691117643954
 20
168.8948557997714
 30
0.0
 11
-1.000609962646295
 21
-0.0000559334427939
 31
0.0
210
0.0
220
0.0
230
0.9999999999999998
 40
0.0262098181752056
 41
6.283183842067803
 42
7.851848873603904
  0
LINE
  5
1E8
330
2
100
AcDbEntity
  8
AM_VIS
100
AcDbLine
 10
-575.6917276066014
 20
168.8947999047523
 30
0.0
 11
-575.6917276066014
 21
168.8983993206145
 31
0.0
  0
ELLIPSE
  5
1E9
330
2
100
AcDbEntity
  8
AM_VIS
100
AcDbEllipse
 10
-574.691117643954
 20
168.898391345344
 30
0.0
 11
1.000609962647348
 21
-0.0000079807329306
 31
0.0
210
0.0
220
0.0
230
0.9999999999999998
 40
0.0261619860322787
 41
1.571101191559059
 42
3.141592862254318
  0
LINE
  5
1EA
330
2
100
AcDbEntity
  8
AM_VIS
100
AcDbLine
 10
-583.9902556935469
 20
169.2498300901765
 30
0.0
 11
-583.9902556935469
 21
170.7493160776399
 31
0.0
  0
LINE
  5
1EB
330
2
100
AcDbEntity
  8
AM_VIS
100
AcDbLine
 10
-585.4897416810104
 20
170.7493160776399
 30
0.0
 11
-583.9902556935469
 21
170.7493160776399
 31
0.0
  0
ELLIPSE
  5
1EC
330
2
100
AcDbEntity
  8
AM_VIS
100
AcDbEllipse
 10
-583.9902556935469
 20
170.7493160776399
 30
0.0
 11
-1.060660171779828
 21
1.060660171779814
 31
0.0
210
0.0
220
0.0
230
0.9999999999999998
 40
0.999315001988409
 41
0.7857407797355921
 42
2.3558518738542
  0
LINE
  5
1ED
330
2
100
AcDbEntity
  8
AM_VIS
100
AcDbLine
 10
-517.2569617764254
 20
169.2498300901765
 30
0.0
 11
-517.2569617764254
 21
170.7493160776399
 31
0.0
  0
LINE
  5
1EE
330
2
100
AcDbEntity
  8
AM_VIS
100
AcDbLine
 10
-583.9902556935469
 20
170.7493160776399
 30
0.0
 11
-517.2569617764254
 21
170.7493160776398
 31
0.0
  0
LINE
  5
1EF
330
2
100
AcDbEntity
  8
AM_VIS
100
AcDbLine
 10
-583.9902556935469
 20
169.2498300901765
 30
0.0
 11
-517.2569617764254
 21
169.2498300901765
 31
0.0
  0
LINE
  5
1F0
330
2
100
AcDbEntity
  8
AM_VIS
100
AcDbLine
 10
-517.2569617764254
 20
170.7493160776399
 30
0.0
 11
-515.7574757889619
 21
170.7493160776399
 31
0.0
  0
ELLIPSE
  5
1F1
330
2
100
AcDbEntity
  8
AM_VIS
100
AcDbEllipse
 10
-517.2569617764254
 20
170.7493160776399
 30
0.0
 11
1.060660171779824
 21
1.060660171779818
 31
0.0
210
0.0
220
0.0
230
0.9999999999999998
 40
0.999315001988409
 41
3.927333433325412
 42
5.497444527443982
  0
LINE
  5
1F2
330
2
100
AcDbEntity
  8
AM_VIS
100
AcDbLine
 10
-517.2569617764254
 20
204.1159672160984
 30
0.0
 11
-517.2569617764254
 21
170.7493160776399
 31
0.0
  0
LINE
  5
1F3
330
2
100
AcDbEntity
  8
AM_VIS
100
AcDbLine
 10
-515.7574757889618
 20
204.1159672160984
 30
0.0
 11
-515.7574757889619
 21
170.7493160776399
 31
0.0
  0
LINE
  5
1F4
330
2
100
AcDbEntity
  8
AM_VIS
100
AcDbLine
 10
-515.7574757889619
 20
237.4826099947616
 30
0.0
 11
-515.7574757889619
 21
204.1159672160984
 31
0.0
  0
LINE
  5
1F5
330
2
100
AcDbEntity
  8
AM_VIS
100
AcDbLine
 10
-517.2569617764254
 20
237.4826099947616
 30
0.0
 11
-515.7574757889619
 21
237.4826099947616
 31
0.0
  0
LINE
  5
1F6
330
2
100
AcDbEntity
  8
AM_VIS
100
AcDbLine
 10
-517.2569617764254
 20
237.4826099947616
 30
0.0
 11
-517.2569617764254
 21
204.1159672160984
 31
0.0
  0
LINE
  5
1F7
330
2
100
AcDbEntity
  8
AM_VIS
100
AcDbLine
 10
-515.1934502739677
 20
170.1852905626455
 30
0.0
 11
-515.1934502739677
 21
238.0466355097558
 31
0.0
  0
LINE
  5
1F8
330
2
100
AcDbEntity
  8
AM_VIS
100
AcDbLine
 10
-515.1934502739677
 20
238.0466355097558
 30
0.0
 11
-515.7574757889619
 21
237.4826099947615
 31
0.0
  0
LINE
  5
1F9
330
2
100
AcDbEntity
  8
AM_VIS
100
AcDbLine
 10
-515.7574757889619
 20
170.7493160776399
 30
0.0
 11
-515.1934502739677
 21
170.1852905626455
 31
0.0
  0
ELLIPSE
  5
1FA
330
2
100
AcDbEntity
  8
AM_VIS
100
AcDbEllipse
 10
-516.6939644627041
 20
170.1863187639184
 30
0.0
 11
1.061387219915001
 21
-1.061387219914981
 31
0.0
210
0.0
220
0.0
230
1.0
 40
0.999315001988409
 41
5.498129760120283
 42
7.068240854238879
  0
LINE
  5
1FB
330
2
100
AcDbEntity
  8
AM_VIS
100
AcDbLine
 10
-517.2569617764254
 20
169.2498300901765
 30
0.0
 11
-516.692936261431
 21
168.6858045751821
 31
0.0
  0
LINE
  5
1FC
330
2
100
AcDbEntity
  8
AM_VIS
100
AcDbLine
 10
-584.5542812085414
 20
168.6858045751821
 30
0.0
 11
-516.692936261431
 21
168.6858045751821
 31
0.0
  0
LINE
  5
1FD
330
2
100
AcDbEntity
  8
AM_VIS
100
AcDbLine
 10
-584.5542812085414
 20
168.6858045751821
 30
0.0
 11
-583.9902556935469
 21
169.2498300901765
 31
0.0
  0
ELLIPSE
  5
1FE
330
2
100
AcDbEntity
  8
AM_VIS
100
AcDbEllipse
 10
-584.5532530072684
 20
170.1863187639184
 30
0.0
 11
-1.061387219914989
 21
-1.061387219914993
 31
0.0
210
0.0
220
0.0
230
0.9999999999999998
 40
0.9993150019884087
 41
5.498129760120287
 42
7.068240854238878
  0
ELLIPSE
  5
1FF
330
2
100
AcDbEntity
  8
AM_VIS
100
AcDbEllipse
 10
-584.5532530072683
 20
238.0456073084829
 30
0.0
 11
-1.061387219914986
 21
1.061387219914995
 31
0.0
210
0.0
220
0.0
230
0.9999999999999998
 40
0.999315001988409
 41
5.49812976012029
 42
7.068240854238881
  0
LINE
  5
200
330
2
100
AcDbEntity
  8
AM_VIS
100
AcDbLine
 10
-584.5542812085413
 20
239.5461214972192
 30
0.0
 11
-516.692936261431
 21
239.5461214972192
 31
0.0
  0
ELLIPSE
  5
201
330
2
100
AcDbEntity
  8
AM_VIS
100
AcDbEllipse
 10
-516.6939644627039
 20
238.0456073084829
 30
0.0
 11
1.061387219914986
 21
1.061387219914996
 31
0.0
210
0.0
220
0.0
230
1.0
 40
0.999315001988409
 41
5.49812976012029
 42
7.068240854238886
  0
LINE
  5
202
330
2
100
AcDbEntity
  8
AM_VIS
100
AcDbLine
 10
-516.692936261431
 20
239.5461214972192
 30
0.0
 11
-517.2569617764254
 21
238.9820959822249
 31
0.0
  0
ELLIPSE
  5
203
330
2
100
AcDbEntity
  8
AM_VIS
100
AcDbEllipse
 10
-517.2569617764254
 20
237.4826099947615
 30
0.0
 11
1.060660171779836
 21
-1.06066017177981
 31
0.0
210
0.0
220
0.0
230
1.0
 40
0.999315001988409
 41
0.7857407797356145
 42
2.355851873854184
  0
LINE
  5
204
330
2
100
AcDbEntity
  8
AM_VIS
100
AcDbLine
 10
-517.2569617764254
 20
238.9820959822249
 30
0.0
 11
-517.2569617764254
 21
237.4826099947616
 31
0.0
  0
LINE
  5
205
330
2
100
AcDbEntity
  8
AM_VIS
100
AcDbLine
 10
-517.2569617764254
 20
238.9820959822249
 30
0.0
 11
-583.9902556935469
 21
238.9820959822249
 31
0.0
  0
LINE
  5
206
330
2
100
AcDbEntity
  8
AM_VIS
100
AcDbLine
 10
-583.9902556935469
 20
238.9820959822249
 30
0.0
 11
-583.9902556935469
 21
237.4826099947616
 31
0.0
  0
LINE
  5
207
330
2
100
AcDbEntity
  8
AM_VIS
100
AcDbLine
 10
-517.2569617764254
 20
237.4826099947616
 30
0.0
 11
-583.9902556935469
 21
237.4826099947616
 31
0.0
  0
LINE
  5
208
330
2
100
AcDbEntity
  8
AM_VIS
100
AcDbLine
 10
-584.5542812085413
 20
239.5461214972192
 30
0.0
 11
-583.9902556935469
 21
238.9820959822249
 31
0.0
  0
ELLIPSE
  5
209
330
2
100
AcDbEntity
  8
AM_VIS
100
AcDbEllipse
 10
-583.9902556935469
 20
237.4826099947615
 30
0.0
 11
1.060660171779827
 21
1.060660171779819
 31
0.0
210
0.0
220
0.0
230
1.0
 40
0.999315001988409
 41
0.7857407797356178
 42
2.355851873854196
  0
LINE
  5
20A
330
2
100
AcDbEntity
  8
AM_VIS
100
AcDbLine
 10
-585.4897416810104
 20
237.4826099947616
 30
0.0
 11
-583.9902556935469
 21
237.4826099947616
 31
0.0
  0
LINE
  5
20B
330
2
100
AcDbEntity
  8
AM_VIS
100
AcDbLine
 10
-583.9902556935469
 20
237.4826099947616
 30
0.0
 11
-583.9902556935469
 21
170.7493160776399
 31
0.0
  0
SPLINE
  5
20C
330
2
100
AcDbEntity
  8
AM_HID
100
AcDbSpline
210
0.0
220
0.0
230
1.0
 70
     8
 71
     1
 72
     8
 73
     6
 74
     0
 42
0.0000000001
 43
0.0000000001
 40
0.0
 40
0.0
 40
0.3630399613537744
 40
0.7260799227075489
 40
1.089119884061323
 40
1.452159845415097
 40
1.815199806768871
 40
1.815199806768871
 10
-525.6218423050704
 20
170.9102454245698
 30
0.0
 10
-525.6091688325682
 20
170.5476590820947
 30
0.0
 10
-525.5964952062489
 20
170.1850669829976
 30
0.0
 10
-525.5838214296423
 20
169.8224692285792
 30
0.0
 10
-525.571147506278
 20
169.4598659201405
 30
0.0
 10
-525.5584734396856
 20
169.097257158982
 30
0.0
  0
SPLINE
  5
20D
330
2
100
AcDbEntity
  8
AM_HID
100
AcDbSpline
210
0.0
220
0.0
230
1.0
 70
     8
 71
     1
 72
     8
 73
     6
 74
     0
 42
0.0000000001
 43
0.0000000001
 40
0.0
 40
0.0
 40
0.3630496502172066
 40
0.7260993004344133
 40
1.089148950651619
 40
1.452198600868826
 40
1.815248251086033
 40
1.815248251086033
 10
-525.5584717468963
 20
239.2656469525563
 30
0.0
 10
-525.571146151663
 20
238.9030285173087
 30
0.0
 10
-525.5838204132627
 20
238.5404155319287
 30
0.0
 10
-525.5964945281379
 20
238.1778080990238
 30
0.0
 10
-525.6091684927309
 20
237.8152063212017
 30
0.0
 10
-525.6218423034836
 20
237.4526103010698
 30
0.0
  0
LINE
  5
20E
330
2
100
AcDbEntity
  8
AM_HID
100
AcDbLine
 10
-575.6236083166383
 20
170.8473095788635
 30
0.0
 11
-575.6917271882534
 21
168.8984232585569
 31
0.0
  0
LINE
  5
20F
330
2
100
AcDbEntity
  8
4
100
AcDbLine
 10
-498.5057924527446
 20
385.5640492976931
 30
0.0
 11
-498.5057924527446
 21
111.5640492976931
 31
0.0
  0
LINE
  5
210
330
2
100
AcDbEntity
  8
4
100
AcDbLine
 10
-498.5057924527446
 20
111.5640492976931
 30
0.0
 11
-699.5057924527445
 21
111.5640492976931
 31
0.0
  0
LINE
  5
211
330
2
100
AcDbEntity
  8
4
100
AcDbLine
 10
-699.5057924527445
 20
111.5640492976931
 30
0.0
 11
-699.5057924527445
 21
385.5640492976931
 31
0.0
  0
LINE
  5
212
330
2
100
AcDbEntity
  8
4
100
AcDbLine
 10
-699.5057924527445
 20
385.5640492976931
 30
0.0
 11
-498.5057924527446
 21
385.5640492976931
 31
0.0
  0
ENDSEC
  0
SECTION
  2
OBJECTS
  0
DICTIONARY
  5
8
330
0
100
AcDbDictionary
281
     1
  3
ACAD_COLOR
350
25
  3
ACAD_GROUP
350
21
  3
ACAD_LAYOUT
350
C
  3
ACAD_MATERIAL
350
24
  3
ACAD_MLINESTYLE
350
22
  3
ACAD_PLOTSETTINGS
350
23
  3
ACAD_PLOTSTYLENAME
350
7
  3
ACDBHEADERROUNDTRIPXREC
350
287
  3
AcDbVariableDictionary
350
282
  3
AcmDictionary
350
222
  3
AMG
350
214
  3
DWGPROPS
350
286
  0
DICTIONARY
  5
3
330
2
100
AcDbDictionary
280
     1
281
     1
  0
DICTIONARY
  5
25
102
{ACAD_REACTORS
330
8
102
}
330
8
100
AcDbDictionary
281
     1
  0
DICTIONARY
  5
21
102
{ACAD_REACTORS
330
8
102
}
330
8
100
AcDbDictionary
281
     1
  0
DICTIONARY
  5
C
102
{ACAD_REACTORS
330
8
102
}
330
8
100
AcDbDictionary
281
     1
  3
Layout1
350
10
  3
Model
350
B
  0
DICTIONARY
  5
24
102
{ACAD_REACTORS
330
8
102
}
330
8
100
AcDbDictionary
281
     1
  0
DICTIONARY
  5
22
102
{ACAD_REACTORS
330
8
102
}
330
8
100
AcDbDictionary
281
     1
  3
Standard
350
27
  0
DICTIONARY
  5
23
102
{ACAD_REACTORS
330
8
102
}
330
8
100
AcDbDictionary
281
     1
  0
ACDBDICTIONARYWDFLT
  5
7
102
{ACAD_REACTORS
330
8
102
}
330
8
100
AcDbDictionary
281
     1
  3
Normal
350
6
100
AcDbDictionaryWithDefault
340
6
  0
DICTIONARY
  5
287
102
{ACAD_REACTORS
330
8
102
}
330
8
100
AcDbDictionary
281
     1
  0
DICTIONARY
  5
282
102
{ACAD_REACTORS
330
8
102
}
330
8
100
AcDbDictionary
281
     1
  3
DIMASSOC
350
284
  3
HIDETEXT
350
283
  3
PROJECTNAME
350
285
  0
DICTIONARY
  5
222
102
{ACAD_REACTORS
330
8
102
}
330
8
100
AcDbDictionary
281
     1
  3
AcmStdDictionary
350
223
  0
DICTIONARY
  5
214
102
{ACAD_REACTORS
330
8
102
}
330
8
100
AcDbDictionary
281
     1
  3
AcMgSettings
350
21D
  0
XRECORD
  5
286
102
{ACAD_REACTORS
330
8
102
}
330
8
100
AcDbXrecord
280
     1
  1
DWGPROPS COOKIE
  2

  3

  4

  6

  7

  8

  9

300
AmdtFileType=84
301
=
302
=
303
=
304
=
305
=
306
=
307
=
308
=
309
=
 40
1.92915630787037
 41
2452788.441764213
 42
2454202.526367002
  1

 90
        1
  0
LAYOUT
  5
10
102
{ACAD_XDICTIONARY
360
28A
102
}
102
{ACAD_REACTORS
330
C
102
}
330
C
100
AcDbPlotSettings
  1

  2
None
  4

  6

 40
0.0
 41
0.0
 42
0.0
 43
0.0
 44
0.0
 45
0.0
 46
0.0
 47
0.0
 48
0.0
 49
0.0
140
0.0
141
0.0
142
1.0
143
1.0
 70
   688
 72
     0
 73
     0
 74
     5
  7
test2002.ctb
 75
    16
147
1.0
148
0.0
149
0.0
100
AcDbLayout
  1
Layout1
 70
     1
 71
     1
 10
0.0
 20
0.0
 11
12.0
 21
9.0
 12
0.0
 22
0.0
 32
0.0
 14
0.0
 24
0.0
 34
0.0
 15
0.0
 25
0.0
 35
0.0
146
0.0
 13
0.0
 23
0.0
 33
0.0
 16
1.0
 26
0.0
 36
0.0
 17
0.0
 27
1.0
 37
0.0
 76
     0
330
D
  0
LAYOUT
  5
B
102
{ACAD_XDICTIONARY
360
288
102
}
102
{ACAD_REACTORS
330
C
102
}
330
C
100
AcDbPlotSettings
  1

  2
hp deskjet 990c series
  4
A4
  6

 40
4.265083312988281
 41
12.39309406280517
 42
4.180419921875
 43
3.17498779296875
 44
209.9733276367187
 45
296.9259948730469
 46
0.26
 47
3.68
 48
-402.0891442486718
 49
156.6775856517156
140
-201.0891442486718
141
430.6775856517155
142
1.0
143
1.0
 70
 11956
 72
     1
 73
     0
 74
     4
  7
test2002.ctb
 75
    16
147
1.0
148
402.0891442486718
149
-156.6775856517156
100
AcDbLayout
  1
Model
 70
     1
 71
     0
 10
0.0
 20
0.0
 11
12.0
 21
9.0
 12
0.0
 22
0.0
 32
0.0
 14
0.0
 24
0.0
 34
0.0
 15
0.0
 25
0.0
 35
0.0
146
0.0
 13
0.0
 23
0.0
 33
0.0
 16
1.0
 26
0.0
 36
0.0
 17
0.0
 27
1.0
 37
0.0
 76
     0
330
2
  0
MLINESTYLE
  5
27
102
{ACAD_REACTORS
330
22
102
}
330
22
100
AcDbMlineStyle
  2
STANDARD
 70
     0
  3

 62
   256
 51
90.0
 52
90.0
 71
     2
 49
0.5
 62
   256
  6
BYLAYER
 49
-0.5
 62
   256
  6
BYLAYER
  0
ACDBPLACEHOLDER
  5
6
102
{ACAD_REACTORS
330
7
102
}
330
7
  0
DICTIONARYVAR
  5
284
102
{ACAD_REACTORS
330
282
102
}
330
282
100
DictionaryVariables
280
     0
  1
1
  0
DICTIONARYVAR
  5
283
102
{ACAD_REACTORS
330
282
102
}
330
282
100
DictionaryVariables
280
     0
  1
1
  0
DICTIONARYVAR
  5
285
102
{ACAD_REACTORS
330
282
102
}
330
282
100
DictionaryVariables
280
     0
  1

  0
DICTIONARY
  5
223
102
{ACAD_REACTORS
330
222
102
}
330
222
100
AcDbDictionary
281
     1
  0
DICTIONARY
  5
21D
102
{ACAD_REACTORS
330
214
102
}
330
214
100
AcDbDictionary
281
     1
  3
DWGSETTINGS
350
21C
  3
TRANSSETTINGS
350
21E
  0
DICTIONARY
  5
28A
330
10
100
AcDbDictionary
280
     1
281
     1
  3
ACAD_XREC_ROUNDTRIP
360
28B
  0
DICTIONARY
  5
288
330
B
100
AcDbDictionary
280
     1
281
     1
  3
ACAD_XREC_ROUNDTRIP
360
289
  0
XRECORD
  5
28B
102
{ACAD_REACTORS
330
28A
102
}
330
28A
100
AcDbXrecord
280
     1
102
SHADEPLOT
 70
     0
102
SHADEPLOTRESLEVEL
 70
     2
102
SHADEPLOTCUSTOMDPI
 70
   300
  0
XRECORD
  5
289
102
{ACAD_REACTORS
330
288
102
}
330
288
100
AcDbXrecord
280
     1
102
SHADEPLOT
 70
     0
102
SHADEPLOTRESLEVEL
 70
     2
102
SHADEPLOTCUSTOMDPI
 70
   300
  0
ENDSEC
  0
EOF
